  0
SECTION
  2
HEADER
  9
$ACADVER
  1
AC1018
  9
$ACADMAINTVER
 70
    39
  9
$DWGCODEPAGE
  3
ANSI_1252
  9
$LASTSAVEDBY
  1
fottrem
  9
$INSBASE
 10
0.0
 20
0.0
 30
0.0
  9
$EXTMIN
 10
15.11400520154416
 20
5.826216099657336
 30
0.0
  9
$EXTMAX
 10
25.21065084395214
 20
15.8265742556826
 30
0.0
  9
$LIMMIN
 10
0.0
 20
0.0
  9
$LIMMAX
 10
12.0
 20
9.0
  9
$ORTHOMODE
 70
     0
  9
$REGENMODE
 70
     1
  9
$FILLMODE
 70
     1
  9
$QTEXTMODE
 70
     0
  9
$MIRRTEXT
 70
     0
  9
$LTSCALE
 40
1.0
  9
$ATTMODE
 70
     1
  9
$TEXTSIZE
 40
0.2
  9
$TRACEWID
 40
0.05
  9
$TEXTSTYLE
  7
Standard
  9
$CLAYER
  8
0
  9
$CELTYPE
  6
ByLayer
  9
$CECOLOR
 62
   256
  9
$CELTSCALE
 40
1.0
  9
$DISPSILH
 70
     0
  9
$DIMSCALE
 40
1.0
  9
$DIMASZ
 40
0.18
  9
$DIMEXO
 40
0.0625
  9
$DIMDLI
 40
0.38
  9
$DIMRND
 40
0.0
  9
$DIMDLE
 40
0.0
  9
$DIMEXE
 40
0.18
  9
$DIMTP
 40
0.0
  9
$DIMTM
 40
0.0
  9
$DIMTXT
 40
0.18
  9
$DIMCEN
 40
0.09
  9
$DIMTSZ
 40
0.0
  9
$DIMTOL
 70
     0
  9
$DIMLIM
 70
     0
  9
$DIMTIH
 70
     1
  9
$DIMTOH
 70
     1
  9
$DIMSE1
 70
     0
  9
$DIMSE2
 70
     0
  9
$DIMTAD
 70
     0
  9
$DIMZIN
 70
     0
  9
$DIMBLK
  1

  9
$DIMASO
 70
     1
  9
$DIMSHO
 70
     1
  9
$DIMPOST
  1

  9
$DIMAPOST
  1

  9
$DIMALT
 70
     0
  9
$DIMALTD
 70
     2
  9
$DIMALTF
 40
25.4
  9
$DIMLFAC
 40
1.0
  9
$DIMTOFL
 70
     0
  9
$DIMTVP
 40
0.0
  9
$DIMTIX
 70
     0
  9
$DIMSOXD
 70
     0
  9
$DIMSAH
 70
     0
  9
$DIMBLK1
  1

  9
$DIMBLK2
  1

  9
$DIMSTYLE
  2
Standard
  9
$DIMCLRD
 70
     0
  9
$DIMCLRE
 70
     0
  9
$DIMCLRT
 70
     0
  9
$DIMTFAC
 40
1.0
  9
$DIMGAP
 40
0.09
  9
$DIMJUST
 70
     0
  9
$DIMSD1
 70
     0
  9
$DIMSD2
 70
     0
  9
$DIMTOLJ
 70
     1
  9
$DIMTZIN
 70
     0
  9
$DIMALTZ
 70
     0
  9
$DIMALTTZ
 70
     0
  9
$DIMUPT
 70
     0
  9
$DIMDEC
 70
     4
  9
$DIMTDEC
 70
     4
  9
$DIMALTU
 70
     2
  9
$DIMALTTD
 70
     2
  9
$DIMTXSTY
  7
Standard
  9
$DIMAUNIT
 70
     0
  9
$DIMADEC
 70
     0
  9
$DIMALTRND
 40
0.0
  9
$DIMAZIN
 70
     0
  9
$DIMDSEP
 70
    46
  9
$DIMATFIT
 70
     3
  9
$DIMFRAC
 70
     0
  9
$DIMLDRBLK
  1

  9
$DIMLUNIT
 70
     2
  9
$DIMLWD
 70
    -2
  9
$DIMLWE
 70
    -2
  9
$DIMTMOVE
 70
     0
  9
$LUNITS
 70
     2
  9
$LUPREC
 70
     4
  9
$SKETCHINC
 40
0.1
  9
$FILLETRAD
 40
0.0
  9
$AUNITS
 70
     0
  9
$AUPREC
 70
     0
  9
$MENU
  1
.
  9
$ELEVATION
 40
0.0
  9
$PELEVATION
 40
0.0
  9
$THICKNESS
 40
0.0
  9
$LIMCHECK
 70
     0
  9
$CHAMFERA
 40
0.0
  9
$CHAMFERB
 40
0.0
  9
$CHAMFERC
 40
0.0
  9
$CHAMFERD
 40
0.0
  9
$SKPOLY
 70
     0
  9
$TDCREATE
 40
2453354.092125822
  9
$TDUCREATE
 40
2453353.717125822
  9
$TDUPDATE
 40
2454792.421239051
  9
$TDUUPDATE
 40
2454792.046239051
  9
$TDINDWG
 40
0.0555671412
  9
$TDUSRTIMER
 40
0.0555549421
  9
$USRTIMER
 70
     1
  9
$ANGBASE
 50
0.0
  9
$ANGDIR
 70
     0
  9
$PDMODE
 70
     0
  9
$PDSIZE
 40
0.0
  9
$PLINEWID
 40
0.0
  9
$SPLFRAME
 70
     0
  9
$SPLINETYPE
 70
     6
  9
$SPLINESEGS
 70
     8
  9
$HANDSEED
  5
545
  9
$SURFTAB1
 70
     6
  9
$SURFTAB2
 70
     6
  9
$SURFTYPE
 70
     6
  9
$SURFU
 70
     6
  9
$SURFV
 70
     6
  9
$UCSBASE
  2

  9
$UCSNAME
  2

  9
$UCSORG
 10
0.0
 20
0.0
 30
0.0
  9
$UCSXDIR
 10
1.0
 20
0.0
 30
0.0
  9
$UCSYDIR
 10
0.0
 20
1.0
 30
0.0
  9
$UCSORTHOREF
  2

  9
$UCSORTHOVIEW
 70
     0
  9
$UCSORGTOP
 10
0.0
 20
0.0
 30
0.0
  9
$UCSORGBOTTOM
 10
0.0
 20
0.0
 30
0.0
  9
$UCSORGLEFT
 10
0.0
 20
0.0
 30
0.0
  9
$UCSORGRIGHT
 10
0.0
 20
0.0
 30
0.0
  9
$UCSORGFRONT
 10
0.0
 20
0.0
 30
0.0
  9
$UCSORGBACK
 10
0.0
 20
0.0
 30
0.0
  9
$PUCSBASE
  2

  9
$PUCSNAME
  2

  9
$PUCSORG
 10
0.0
 20
0.0
 30
0.0
  9
$PUCSXDIR
 10
1.0
 20
0.0
 30
0.0
  9
$PUCSYDIR
 10
0.0
 20
1.0
 30
0.0
  9
$PUCSORTHOREF
  2

  9
$PUCSORTHOVIEW
 70
     0
  9
$PUCSORGTOP
 10
0.0
 20
0.0
 30
0.0
  9
$PUCSORGBOTTOM
 10
0.0
 20
0.0
 30
0.0
  9
$PUCSORGLEFT
 10
0.0
 20
0.0
 30
0.0
  9
$PUCSORGRIGHT
 10
0.0
 20
0.0
 30
0.0
  9
$PUCSORGFRONT
 10
0.0
 20
0.0
 30
0.0
  9
$PUCSORGBACK
 10
0.0
 20
0.0
 30
0.0
  9
$USERI1
 70
     0
  9
$USERI2
 70
     0
  9
$USERI3
 70
     0
  9
$USERI4
 70
     0
  9
$USERI5
 70
     0
  9
$USERR1
 40
0.0
  9
$USERR2
 40
0.0
  9
$USERR3
 40
0.0
  9
$USERR4
 40
0.0
  9
$USERR5
 40
0.0
  9
$WORLDVIEW
 70
     1
  9
$SHADEDGE
 70
     3
  9
$SHADEDIF
 70
    70
  9
$TILEMODE
 70
     1
  9
$MAXACTVP
 70
    64
  9
$PINSBASE
 10
0.0
 20
0.0
 30
0.0
  9
$PLIMCHECK
 70
     0
  9
$PEXTMIN
 10
0.0
 20
0.0
 30
0.0
  9
$PEXTMAX
 10
0.0
 20
0.0
 30
0.0
  9
$PLIMMIN
 10
0.0
 20
0.0
  9
$PLIMMAX
 10
12.0
 20
9.0
  9
$UNITMODE
 70
     0
  9
$VISRETAIN
 70
     1
  9
$PLINEGEN
 70
     0
  9
$PSLTSCALE
 70
     1
  9
$TREEDEPTH
 70
  3020
  9
$CMLSTYLE
  2
Standard
  9
$CMLJUST
 70
     0
  9
$CMLSCALE
 40
1.0
  9
$PROXYGRAPHICS
 70
     1
  9
$MEASUREMENT
 70
     0
  9
$CELWEIGHT
370
    -1
  9
$ENDCAPS
280
     0
  9
$JOINSTYLE
280
     0
  9
$LWDISPLAY
290
     0
  9
$INSUNITS
 70
     1
  9
$HYPERLINKBASE
  1

  9
$STYLESHEET
  1

  9
$XEDIT
290
     0
  9
$CEPSNTYPE
380
     0
  9
$PSTYLEMODE
290
     0
  9
$FINGERPRINTGUID
  2
{8BAE0D3F-6380-4E3D-B0D1-267E31F469C1}
  9
$VERSIONGUID
  2
{6F1AD05E-3764-4268-ADD0-261F181DCA83}
  9
$EXTNAMES
290
     1
  9
$PSVPSCALE
 40
0.0
  9
$OLESTARTUP
290
     0
  9
$SORTENTS
280
   127
  9
$INDEXCTL
280
     0
  9
$HIDETEXT
280
     1
  9
$XCLIPFRAME
290
     0
  9
$HALOGAP
280
     0
  9
$OBSCOLOR
 70
   257
  9
$OBSLTYPE
280
     0
  9
$INTERSECTIONDISPLAY
280
     0
  9
$INTERSECTIONCOLOR
 70
   257
  9
$DIMASSOC
280
     2
  9
$PROJECTNAME
  1

  0
ENDSEC
  0
SECTION
  2
CLASSES
  0
CLASS
  1
ACDBDICTIONARYWDFLT
  2
AcDbDictionaryWithDefault
  3
ObjectDBX Classes
 90
        0
 91
        3
280
     0
281
     0
  0
CLASS
  1
ACDBPLACEHOLDER
  2
AcDbPlaceHolder
  3
ObjectDBX Classes
 90
        0
 91
        1
280
     0
281
     0
  0
CLASS
  1
LAYOUT
  2
AcDbLayout
  3
ObjectDBX Classes
 90
        0
 91
        1
280
     0
281
     0
  0
CLASS
  1
DICTIONARYVAR
  2
AcDbDictionaryVar
  3
ObjectDBX Classes
 90
        0
 91
        3
280
     0
281
     0
  0
CLASS
  1
TABLESTYLE
  2
AcDbTableStyle
  3
ObjectDBX Classes
 90
     2047
 91
        3
280
     0
281
     0
  0
ENDSEC
  0
SECTION
  2
TABLES
  0
TABLE
  2
VPORT
  5
8
330
0
100
AcDbSymbolTable
 70
     2
  0
VPORT
  5
97
330
8
100
AcDbSymbolTableRecord
100
AcDbViewportTableRecord
  2
*Active
 70
     0
 10
0.0
 20
0.0
 11
1.0
 21
1.0
 12
27.32746174650046
 22
8.861883034594278
 13
0.0
 23
0.0
 14
0.5
 24
0.5
 15
0.5
 25
0.5
 16
0.0
 26
0.0
 36
1.0
 17
0.0
 27
0.0
 37
0.0
 40
22.4504797807544
 41
2.031468531468532
 42
50.0
 43
0.0
 44
0.0
 50
0.0
 51
0.0
 71
    16
 72
  1000
 73
     1
 74
     1
 75
     0
 76
     0
 77
     0
 78
     0
281
     0
 65
     0
110
0.0
120
0.0
130
0.0
111
1.0
121
0.0
131
0.0
112
0.0
122
1.0
132
0.0
 79
     0
146
0.0
  0
ENDTAB
  0
TABLE
  2
LTYPE
  5
5
330
0
100
AcDbSymbolTable
 70
     1
  0
LTYPE
  5
14
330
5
100
AcDbSymbolTableRecord
100
AcDbLinetypeTableRecord
  2
ByBlock
 70
     0
  3

 72
    65
 73
     0
 40
0.0
  0
LTYPE
  5
15
330
5
100
AcDbSymbolTableRecord
100
AcDbLinetypeTableRecord
  2
ByLayer
 70
     0
  3

 72
    65
 73
     0
 40
0.0
  0
LTYPE
  5
16
330
5
100
AcDbSymbolTableRecord
100
AcDbLinetypeTableRecord
  2
Continuous
 70
     0
  3
Solid line
 72
    65
 73
     0
 40
0.0
  0
ENDTAB
  0
TABLE
  2
LAYER
  5
2
330
0
100
AcDbSymbolTable
 70
     2
  0
LAYER
  5
10
330
2
100
AcDbSymbolTableRecord
100
AcDbLayerTableRecord
  2
0
 70
     0
 62
     7
  6
Continuous
370
    -3
390
F
  0
LAYER
  5
30B
330
2
100
AcDbSymbolTableRecord
100
AcDbLayerTableRecord
  2
DEFPOINTS
 70
     0
 62
     7
  6
Continuous
290
     0
370
    -3
390
F
  0
ENDTAB
  0
TABLE
  2
STYLE
  5
3
330
0
100
AcDbSymbolTable
 70
     1
  0
STYLE
  5
11
330
3
100
AcDbSymbolTableRecord
100
AcDbTextStyleTableRecord
  2
Standard
 70
     0
 40
0.0
 41
1.0
 50
0.0
 71
     0
 42
0.2
  3
txt
  4

  0
ENDTAB
  0
TABLE
  2
VIEW
  5
6
330
0
100
AcDbSymbolTable
 70
     0
  0
ENDTAB
  0
TABLE
  2
UCS
  5
7
330
0
100
AcDbSymbolTable
 70
     0
  0
ENDTAB
  0
TABLE
  2
APPID
  5
9
330
0
100
AcDbSymbolTable
 70
     1
  0
APPID
  5
12
330
9
100
AcDbSymbolTableRecord
100
AcDbRegAppTableRecord
  2
ACAD
 70
     0
  0
ENDTAB
  0
TABLE
  2
DIMSTYLE
  5
A
330
0
100
AcDbSymbolTable
 70
     1
100
AcDbDimStyleTable
  0
DIMSTYLE
105
27
330
A
100
AcDbSymbolTableRecord
100
AcDbDimStyleTableRecord
  2
Standard
 70
     0
340
11
  0
ENDTAB
  0
TABLE
  2
BLOCK_RECORD
  5
1
330
0
100
AcDbSymbolTable
 70
     1
  0
BLOCK_RECORD
  5
1F
330
1
100
AcDbSymbolTableRecord
100
AcDbBlockTableRecord
  2
*Model_Space
340
22
  0
BLOCK_RECORD
  5
73
330
1
100
AcDbSymbolTableRecord
100
AcDbBlockTableRecord
  2
*Paper_Space
340
74
  0
BLOCK_RECORD
  5
9B
330
1
100
AcDbSymbolTableRecord
100
AcDbBlockTableRecord
  2
*Paper_Space0
340
9C
  0
ENDTAB
  0
ENDSEC
  0
SECTION
  2
BLOCKS
  0
BLOCK
  5
20
330
1F
100
AcDbEntity
  8
0
100
AcDbBlockBegin
  2
*Model_Space
 70
     0
 71
     0
 10
0.0
 20
0.0
 30
0.0
  3
*Model_Space
  1

  0
ENDBLK
  5
21
330
1F
100
AcDbEntity
  8
0
100
AcDbBlockEnd
  0
BLOCK
  5
75
330
73
100
AcDbEntity
 67
     1
  8
0
100
AcDbBlockBegin
  2
*Paper_Space
 70
     0
 71
     0
 10
0.0
 20
0.0
 30
0.0
  3
*Paper_Space
  1

  0
ENDBLK
  5
76
330
73
100
AcDbEntity
 67
     1
  8
0
100
AcDbBlockEnd
  0
BLOCK
  5
543
330
9B
100
AcDbEntity
  8
0
100
AcDbBlockBegin
  2
*Paper_Space0
 70
     0
 71
     0
 10
0.0
 20
0.0
 30
0.0
  3
*Paper_Space0
  1

  0
ENDBLK
  5
544
330
9B
100
AcDbEntity
  8
0
100
AcDbBlockEnd
  0
ENDSEC
  0
SECTION
  2
ENTITIES
  0
LINE
  5
9D
330
1F
100
AcDbEntity
  8
0
  6
Continuous
 62
     7
370
    15
100
AcDbLine
 10
17.66562359071332
 20
9.288052133500466
 30
0.0
 11
18.94143278524532
 21
9.288052133500466
 31
0.0
  0
LINE
  5
9E
330
1F
100
AcDbEntity
  8
0
  6
Continuous
 62
     7
370
    15
100
AcDbLine
 10
18.96700914883631
 20
12.56333116251224
 30
0.0
 11
17.66562359071332
 21
12.56333116251224
 31
0.0
  0
SPLINE
  5
9F
330
1F
100
AcDbEntity
  8
0
  6
Continuous
 62
     7
370
    15
100
AcDbSpline
210
0.0
220
0.0
230
1.0
 70
    12
 71
     3
 72
    23
 73
    19
 74
     0
 42
0.00000001
 43
0.00000001
 40
0.0
 40
0.0
 40
0.0
 40
0.0
 40
0.0655038910809704
 40
0.1298400716013899
 40
0.1931594928865579
 40
0.2555496651978114
 40
0.317648204789269
 40
0.3791960176280262
 40
0.4399548317655101
 40
0.5011747468309724
 40
0.5619459436687714
 40
0.6226567509874518
 40
0.6840377693522711
 40
0.7455121871779327
 40
0.8077287532919246
 40
0.870993191086806
 40
0.9349716687019336
 40
1.0
 40
1.0
 40
1.0
 40
1.0
 10
20.11493652554422
 20
6.417481445726045
 30
0.0
 41
1.0
 10
20.1906863742136
 20
6.418234321399519
 30
0.0
 41
1.0
 10
20.34083571057704
 20
6.419726651546172
 30
0.0
 41
1.0
 10
20.56379222859751
 20
6.435126526583746
 30
0.0
 41
1.0
 10
20.78206329451382
 20
6.461017379514431
 30
0.0
 41
1.0
 10
20.99658908128114
 20
6.495272695670589
 30
0.0
 41
1.0
 10
21.20698872700182
 20
6.540471442366854
 30
0.0
 41
1.0
 10
21.41309621030657
 20
6.595615495469954
 30
0.0
 41
1.0
 10
21.61428142697647
 20
6.663349454390067
 30
0.0
 41
1.0
 10
21.8124087029323
 20
6.73706981229465
 30
0.0
 41
1.0
 10
22.00518110950811
 20
6.823805703515486
 30
0.0
 41
1.0
 10
22.19411515115159
 20
6.918825056470673
 30
0.0
 41
1.0
 10
22.37901618127569
 20
7.023360922455072
 30
0.0
 41
1.0
 10
22.55801317563412
 20
7.140754403287375
 30
0.0
 41
1.0
 10
22.7353537458437
 20
7.264595414028511
 30
0.0
 41
1.0
 10
22.90519878029596
 20
7.403076200704464
 30
0.0
 41
1.0
 10
23.0757672615122
 20
7.545870177459228
 30
0.0
 41
1.0
 10
23.18180336833475
 20
7.650886575096322
 30
0.0
 41
1.0
 10
23.23525288113265
 20
7.70382208411941
 30
0.0
 41
1.0
  0
SPLINE
  5
A0
330
1F
100
AcDbEntity
  8
0
  6
Continuous
 62
     7
370
    15
100
AcDbSpline
210
0.0
220
0.0
230
1.0
 70
    12
 71
     3
 72
    15
 73
    11
 74
     0
 42
0.00000001
 43
0.00000001
 40
0.0
 40
0.0
 40
0.0
 40
0.0
 40
0.1416280141655581
 40
0.2772140041518616
 40
0.4059687041363528
 40
0.5305918929723427
 40
0.6512796140220513
 40
0.7680486479356251
 40
0.884018055689985
 40
0.9999999999999999
 40
0.9999999999999999
 40
0.9999999999999999
 40
0.9999999999999999
 10
21.1740988757536
 20
9.390357587791012
 30
0.0
 41
1.0
 10
21.17326015735939
 20
9.432017011503506
 30
0.0
 41
1.0
 10
21.17161850132267
 20
9.513558616998038
 30
0.0
 41
1.0
 10
21.15800819253169
 20
9.63238143608086
 30
0.0
 41
1.0
 10
21.13526863585408
 20
9.744573855869085
 30
0.0
 41
1.0
 10
21.10454107403674
 20
9.850480261788324
 30
0.0
 41
1.0
 10
21.06144676099061
 20
9.948061439498046
 30
0.0
 41
1.0
 10
21.01233645051073
 20
10.0398912374231
 30
0.0
 41
1.0
 10
20.95128428742181
 20
10.12272827780583
 30
0.0
 41
1.0
 10
20.90524721365185
 20
10.17308837079134
 30
0.0
 41
1.0
 10
20.88222743265607
 20
10.19826977822045
 30
0.0
 41
1.0
  0
SPLINE
  5
A1
330
1F
100
AcDbEntity
  8
0
  6
Continuous
 62
     7
370
    15
100
AcDbSpline
210
0.0
220
0.0
230
1.0
 70
    12
 71
     3
 72
    15
 73
    11
 74
     0
 42
0.00000001
 43
0.00000001
 40
0.0
 40
0.0
 40
0.0
 40
0.0
 40
0.1464694683645154
 40
0.2854977928814099
 40
0.4164439753821006
 40
0.5407781995869458
 40
0.6600848583032629
 40
0.7754255847113244
 40
0.8882237749655874
 40
1.0
 40
1.0
 40
1.0
 40
1.0
 10
19.9554603762229
 20
7.261501443549136
 30
0.0
 41
1.0
 10
19.86513236311042
 20
7.263206395619204
 30
0.0
 41
1.0
 10
19.6890653051295
 20
7.266529682434217
 30
0.0
 41
1.0
 10
19.43321600394983
 20
7.293057989719884
 30
0.0
 41
1.0
 10
19.19447731454945
 20
7.340406682285715
 30
0.0
 41
1.0
 10
18.9716077561639
 20
7.402384446444019
 30
0.0
 41
1.0
 10
18.76595315751572
 20
7.485660703212212
 30
0.0
 41
1.0
 10
18.57679368679056
 20
7.58690030766425
 30
0.0
 41
1.0
 10
18.40302079969243
 20
7.705438480539922
 30
0.0
 41
1.0
 10
18.30143348217215
 20
7.79978849341337
 30
0.0
 41
1.0
 10
18.25087096885468
 20
7.846748821718716
 30
0.0
 41
1.0
  0
SPLINE
  5
A2
330
1F
100
AcDbEntity
  8
0
  6
Continuous
 62
     7
370
    15
100
AcDbSpline
210
0.0
220
0.0
230
1.0
 70
    12
 71
     3
 72
    15
 73
    11
 74
     0
 42
0.00000001
 43
0.00000001
 40
0.0
 40
0.0
 40
0.0
 40
0.0
 40
0.131043400159845
 40
0.25812054880111
 40
0.3817211468657645
 40
0.5038503702941187
 40
0.6255921350628532
 40
0.7480797025634418
 40
0.8721776322594126
 40
0.9999999999999999
 40
0.9999999999999999
 40
0.9999999999999999
 40
0.9999999999999999
 10
17.06081781684385
 20
7.70382208411941
 30
0.0
 41
1.0
 10
17.16878343509818
 20
7.601376497889651
 30
0.0
 41
1.0
 10
17.38144690843202
 20
7.399586015441728
 30
0.0
 41
1.0
 10
17.7279998684182
 20
7.138109949565742
 30
0.0
 41
1.0
 10
18.0877224895683
 20
6.914069042878829
 30
0.0
 41
1.0
 10
18.46450408168952
 20
6.733409379218809
 30
0.0
 41
1.0
 10
18.85581703530044
 20
6.59057772487709
 30
0.0
 41
1.0
 10
19.26234776953265
 20
6.490387513047102
 30
0.0
 41
1.0
 10
19.68370759702331
 20
6.427889129722005
 30
0.0
 41
1.0
 10
19.96978374779125
 20
6.420984699200095
 30
0.0
 41
1.0
 10
20.11493652554422
 20
6.417481445726045
 30
0.0
 41
1.0
  0
SPLINE
  5
A3
330
1F
100
AcDbEntity
  8
0
  6
Continuous
 62
     7
370
    15
100
AcDbSpline
210
0.0
220
0.0
230
1.0
 70
    12
 71
     3
 72
    11
 73
     7
 74
     0
 42
0.00000001
 43
0.00000001
 40
0.0
 40
0.0
 40
0.0
 40
0.0
 40
0.2287361190480126
 40
0.467227404115946
 40
0.7247671269835916
 40
1.0
 40
1.0
 40
1.0
 40
1.0
 10
19.29348390734202
 20
13.18919982398229
 30
0.0
 41
1.0
 10
19.25711850130584
 20
13.14855393569548
 30
0.0
 41
1.0
 10
19.18283677294298
 20
13.0655286883
 30
0.0
 41
1.0
 10
19.09208706182034
 20
12.9177419817883
 30
0.0
 41
1.0
 10
19.01857124001831
 20
12.74883539934719
 30
0.0
 41
1.0
 10
18.9845728696716
 20
12.62651992300538
 30
0.0
 41
1.0
 10
18.9670091488258
 20
12.56333116249481
 30
0.0
 41
1.0
  0
SPLINE
  5
A4
330
1F
100
AcDbEntity
  8
0
  6
Continuous
 62
     7
370
    15
100
AcDbSpline
210
0.0
220
0.0
230
1.0
 70
    12
 71
     3
 72
    15
 73
    11
 74
     0
 42
0.00000001
 43
0.00000001
 40
0.0
 40
0.0
 40
0.0
 40
0.0
 40
0.1836832193290992
 40
0.3490035009153847
 40
0.4963577242162399
 40
0.6270942057350803
 40
0.7419698029774872
 40
0.841025018328455
 40
0.9259019584019302
 40
1.0
 40
1.0
 40
1.0
 40
1.0
 10
19.34012315855864
 20
11.60045629866823
 30
0.0
 41
1.0
 10
19.43038115978617
 20
11.59838982547897
 30
0.0
 41
1.0
 10
19.60187400779425
 20
11.59446346584597
 30
0.0
 41
1.0
 10
19.8459509671313
 20
11.5975355689349
 30
0.0
 41
1.0
 10
20.06335237661916
 20
11.61453213002287
 30
0.0
 41
1.0
 10
20.25504630584751
 20
11.63883845994205
 30
0.0
 41
1.0
 10
20.42116500686237
 20
11.67383992263016
 30
0.0
 41
1.0
 10
20.56072881907193
 20
11.71989539510393
 30
0.0
 41
1.0
 10
20.67608597981263
 20
11.77537834767049
 30
0.0
 41
1.0
 10
20.73562261493401
 20
11.826414213001
 30
0.0
 41
1.0
 10
20.7633725666525
 20
11.85020196647319
 30
0.0
 41
1.0
  0
LINE
  5
A5
330
1F
100
AcDbEntity
  8
0
  6
Continuous
 62
     7
370
    15
100
AcDbLine
 10
19.34012315853265
 20
10.56987929595087
 30
0.0
 11
19.34012315853265
 21
11.60045629867926
 31
0.0
  0
SPLINE
  5
A6
330
1F
100
AcDbEntity
  8
0
  6
Continuous
 62
     7
370
    15
100
AcDbSpline
210
0.0
220
0.0
230
1.0
 70
    12
 71
     3
 72
    15
 73
    11
 74
     0
 42
0.00000001
 43
0.00000001
 40
0.0
 40
0.0
 40
0.0
 40
0.0
 40
0.1481853919441603
 40
0.289204903886021
 40
0.421222237633587
 40
0.547318233760095
 40
0.6669147675652093
 40
0.7816082834479093
 40
0.893003999270166
 40
1.0
 40
1.0
 40
1.0
 40
1.0
 10
20.94541609559474
 20
11.04680325196779
 30
0.0
 41
1.0
 10
20.99815237537185
 20
11.04035381872343
 30
0.0
 41
1.0
 10
21.10107473852877
 20
11.02776683091686
 30
0.0
 41
1.0
 10
21.24966369223181
 20
10.99992221774565
 30
0.0
 41
1.0
 10
21.38768313502908
 20
10.96163460948831
 30
0.0
 41
1.0
 10
21.51555641185753
 20
10.916877786922
 30
0.0
 41
1.0
 10
21.6340355251801
 20
10.86470870702051
 30
0.0
 41
1.0
 10
21.74103419786743
 20
10.80193741442631
 30
0.0
 41
1.0
 10
21.83976696466546
 20
10.73417219815323
 30
0.0
 41
1.0
 10
21.89686600770511
 20
10.68045053860548
 30
0.0
 41
1.0
 10
21.92484037114348
 20
10.65413084656358
 30
0.0
 41
1.0
  0
SPLINE
  5
A7
330
1F
100
AcDbEntity
  8
0
  6
Continuous
 62
     7
370
    15
100
AcDbSpline
210
0.0
220
0.0
230
1.0
 70
    12
 71
     3
 72
    15
 73
    11
 74
     0
 42
0.00000001
 43
0.00000001
 40
0.0
 40
0.0
 40
0.0
 40
0.0
 40
0.1487017847803005
 40
0.289746619795951
 40
0.4220288657350144
 40
0.5468168685942574
 40
0.6661749972306586
 40
0.7807645798491647
 40
0.8908183144653764
 40
1.0
 40
1.0
 40
1.0
 40
1.0
 10
21.84510229648284
 20
11.51470025610855
 30
0.0
 41
1.0
 10
21.80788014119143
 20
11.47917886448452
 30
0.0
 41
1.0
 10
21.7353524731938
 20
11.40996514812752
 30
0.0
 41
1.0
 10
21.62324015663846
 20
11.31606337742281
 30
0.0
 41
1.0
 10
21.5093639960818
 20
11.2383872902665
 30
0.0
 41
1.0
 10
21.39821401044492
 20
11.17018854739913
 30
0.0
 41
1.0
 10
21.28468676966731
 20
11.11909482704915
 30
0.0
 41
1.0
 10
21.17155514848328
 20
11.08200617316353
 30
0.0
 41
1.0
 10
21.05904006651327
 20
11.05397555838875
 30
0.0
 41
1.0
 10
20.98319018362867
 20
11.0491876725436
 30
0.0
 41
1.0
 10
20.94541609559474
 20
11.04680325196779
 30
0.0
 41
1.0
  0
SPLINE
  5
A8
330
1F
100
AcDbEntity
  8
0
  6
Continuous
 62
     7
370
    15
100
AcDbSpline
210
0.0
220
0.0
230
1.0
 70
    12
 71
     3
 72
    15
 73
    11
 74
     0
 42
0.00000001
 43
0.00000001
 40
0.0
 40
0.0
 40
0.0
 40
0.0
 40
0.1193147781484807
 40
0.2378428130978164
 40
0.3563883324529185
 40
0.4770332172661764
 40
0.600659831710357
 40
0.7280374884431667
 40
0.8606133793383164
 40
1.0
 40
1.0
 40
1.0
 40
1.0
 10
18.29149225217238
 20
13.80453704164641
 30
0.0
 41
1.0
 10
18.34796967593041
 20
13.85810866658926
 30
0.0
 41
1.0
 10
18.46055212004651
 20
13.96489867346313
 30
0.0
 41
1.0
 10
18.6505896138496
 20
14.09962310691175
 30
0.0
 41
1.0
 10
18.85334913051183
 20
14.21548531958345
 30
0.0
 41
1.0
 10
19.07142997638339
 20
14.30795496121044
 30
0.0
 41
1.0
 10
19.30218800886522
 20
14.38292469636178
 30
0.0
 41
1.0
 10
19.54758214917971
 20
14.43245978682209
 30
0.0
 41
1.0
 10
19.80611361745861
 20
14.46555693657117
 30
0.0
 41
1.0
 10
19.98343449104866
 20
14.46917344718786
 30
0.0
 41
1.0
 10
20.07431524222651
 20
14.4710269864516
 30
0.0
 41
1.0
  0
SPLINE
  5
A9
330
1F
100
AcDbEntity
  8
0
  6
Continuous
 62
     7
370
    15
100
AcDbSpline
210
0.0
220
0.0
230
1.0
 70
    12
 71
     3
 72
    15
 73
    11
 74
     0
 42
0.00000001
 43
0.00000001
 40
0.0
 40
0.0
 40
0.0
 40
0.0
 40
0.1439430583720295
 40
0.2802687250311306
 40
0.4100138748479534
 40
0.5338643594178184
 40
0.6534652011935932
 40
0.7698769029775324
 40
0.8856740681438157
 40
1.0
 40
1.0
 40
1.0
 40
1.0
 10
20.07431524222651
 20
14.4710269864516
 30
0.0
 41
1.0
 10
20.16063648914324
 20
14.46934054697082
 30
0.0
 41
1.0
 10
20.32871090752836
 20
14.46605691350897
 30
0.0
 41
1.0
 10
20.57353223908746
 20
14.43924808700678
 30
0.0
 41
1.0
 10
20.80275033383814
 20
14.39198935102204
 30
0.0
 41
1.0
 10
21.01810438264521
 20
14.32991962603353
 30
0.0
 41
1.0
 10
21.21765136776276
 20
14.24652699101122
 30
0.0
 41
1.0
 10
21.40291924887421
 20
14.14501088959424
 30
0.0
 41
1.0
 10
21.57373712240151
 20
14.02547932438367
 30
0.0
 41
1.0
 10
21.6746226617893
 20
13.9311421454375
 30
0.0
 41
1.0
 10
21.72474293850449
 20
13.88427511630719
 30
0.0
 41
1.0
  0
SPLINE
  5
AA
330
1F
100
AcDbEntity
  8
0
  6
Continuous
 62
     7
370
    15
100
AcDbSpline
210
0.0
220
0.0
230
1.0
 70
    12
 71
     3
 72
    15
 73
    11
 74
     0
 42
0.00000001
 43
0.00000001
 40
0.0
 40
0.0
 40
0.0
 40
0.0
 40
0.1429767683721733
 40
0.279426795987219
 40
0.4099249069997413
 40
0.5342576529204485
 40
0.6536905711108427
 40
0.7696497350251631
 40
0.8840408360856835
 40
1.0
 40
1.0
 40
1.0
 40
1.0
 10
19.9554603762229
 20
8.290573954263834
 30
0.0
 41
1.0
 10
20.00366693542809
 20
8.291101386281198
 30
0.0
 41
1.0
 10
20.09787947455342
 20
8.292132173592849
 30
0.0
 41
1.0
 10
20.23503529918017
 20
8.310068546702372
 30
0.0
 41
1.0
 10
20.36468315877685
 20
8.334526373855924
 30
0.0
 41
1.0
 10
20.48567211446752
 20
8.370809635022411
 30
0.0
 41
1.0
 10
20.59793331591749
 20
8.417234594307269
 30
0.0
 41
1.0
 10
20.70051777233416
 20
8.475521921442471
 30
0.0
 41
1.0
 10
20.7973744663654
 20
8.541225938516645
 30
0.0
 41
1.0
 10
20.85381504129189
 20
8.59466218649037
 30
0.0
 41
1.0
 10
20.88222743265607
 20
8.621562188704207
 30
0.0
 41
1.0
  0
SPLINE
  5
AB
330
1F
100
AcDbEntity
  8
0
  6
Continuous
 62
     7
370
    15
100
AcDbSpline
210
0.0
220
0.0
230
1.0
 70
    12
 71
     3
 72
    15
 73
    11
 74
     0
 42
0.00000001
 43
0.00000001
 40
0.0
 40
0.0
 40
0.0
 40
0.0
 40
0.0844115436489011
 40
0.1775866417187462
 40
0.2812274643286478
 40
0.3970400226440879
 40
0.5257878361765841
 40
0.6690650955297479
 40
0.8272492125766917
 40
1.0
 40
1.0
 40
1.0
 40
1.0
 10
20.88222743265607
 20
10.19826977822045
 30
0.0
 41
1.0
 10
20.84811036539939
 20
10.22871746497167
 30
0.0
 41
1.0
 10
20.77633421799694
 20
10.29277389854127
 30
0.0
 41
1.0
 10
20.64189928193807
 20
10.36559915231438
 30
0.0
 41
1.0
 10
20.48621672347666
 20
10.43143063775721
 30
0.0
 41
1.0
 10
20.30415148799442
 20
10.48042653662859
 30
0.0
 41
1.0
 10
20.09857154089915
 20
10.52081667450612
 30
0.0
 41
1.0
 10
19.86796515593893
 20
10.55092411817052
 30
0.0
 41
1.0
 10
19.61214618590162
 20
10.56622108557626
 30
0.0
 41
1.0
 10
19.43341981742167
 20
10.56862462716884
 30
0.0
 41
1.0
 10
19.34012315855864
 20
10.56987929597872
 30
0.0
 41
1.0
  0
SPLINE
  5
AC
330
1F
100
AcDbEntity
  8
0
  6
Continuous
 62
     7
370
    15
100
AcDbSpline
210
0.0
220
0.0
230
1.0
 70
    12
 71
     3
 72
    15
 73
    11
 74
     0
 42
0.00000001
 43
0.00000001
 40
0.0
 40
0.0
 40
0.0
 40
0.0
 40
0.1139659607647186
 40
0.2280093687785227
 40
0.3445383520426834
 40
0.46394547561587
 40
0.5884532935533789
 40
0.7181438585493374
 40
0.8550698300403021
 40
1.0
 40
1.0
 40
1.0
 40
1.0
 10
21.84510229648284
 20
7.926486896379302
 30
0.0
 41
1.0
 10
21.78826455333757
 20
7.872714073964818
 30
0.0
 41
1.0
 10
21.67455044212066
 20
7.765131887021145
 30
0.0
 41
1.0
 10
21.47847935640469
 20
7.63191013775431
 30
0.0
 41
1.0
 10
21.26760009622994
 20
7.5167412585716
 30
0.0
 41
1.0
 10
21.03815976812381
 20
7.423744531914925
 30
0.0
 41
1.0
 10
20.79262377641204
 20
7.349335082444871
 30
0.0
 41
1.0
 10
20.52875665556523
 20
7.299736881721854
 30
0.0
 41
1.0
 10
20.24815901533616
 20
7.266942522958313
 30
0.0
 41
1.0
 10
20.05485640271086
 20
7.263349151740475
 30
0.0
 41
1.0
 10
19.9554603762229
 20
7.261501443549136
 30
0.0
 41
1.0
  0
SPLINE
  5
AD
330
1F
100
AcDbEntity
  8
0
  6
Continuous
 62
     7
370
    15
100
AcDbSpline
210
0.0
220
0.0
230
1.0
 70
    12
 71
     3
 72
    23
 73
    19
 74
     0
 42
0.00000001
 43
0.00000001
 40
0.0
 40
0.0
 40
0.0
 40
0.0
 40
0.0636935497010408
 40
0.1265933001269195
 40
0.1888990373680517
 40
0.2503422640293606
 40
0.3115339545688688
 40
0.3725072216080467
 40
0.4328173344276193
 40
0.4935963072150982
 40
0.5548482752512829
 40
0.6159378222264307
 40
0.6779802699607408
 40
0.7402662611151465
 40
0.8037037732613923
 40
0.8680300167152741
 40
0.933428498866065
 40
1.0
 40
1.0
 40
1.0
 40
1.0
 10
17.06081781684385
 20
13.94595928727107
 30
0.0
 41
1.0
 10
17.00971095119434
 20
13.8932310000832
 30
0.0
 41
1.0
 10
16.90813415398208
 20
13.78843156722861
 30
0.0
 41
1.0
 10
16.76462133784003
 20
13.6244411975831
 30
0.0
 41
1.0
 10
16.63325746781231
 20
13.45394591651356
 30
0.0
 41
1.0
 10
16.50835251542015
 20
13.28104834309591
 30
0.0
 41
1.0
 10
16.39622309008219
 20
13.10138140588679
 30
0.0
 41
1.0
 10
16.29221048523806
 20
12.9184601683671
 30
0.0
 41
1.0
 10
16.19849702368737
 20
12.73055602393447
 30
0.0
 41
1.0
 10
16.1138065173016
 20
12.53805338312214
 30
0.0
 41
1.0
 10
16.04067491715234
 20
12.3399009555173
 30
0.0
 41
1.0
 10
15.97705979394834
 20
12.13699422071688
 30
0.0
 41
1.0
 10
15.92348514273358
 20
11.92999525919925
 30
0.0
 41
1.0
 10
15.87754595122861
 20
11.71839123963306
 30
0.0
 41
1.0
 10
15.84314365874193
 20
11.50188671952611
 30
0.0
 41
1.0
 10
15.81973015275182
 20
11.28039628823475
 30
0.0
 41
1.0
 10
15.80366811228615
 20
11.05456284212981
 30
0.0
 41
1.0
 10
15.80226554900037
 20
10.90240040190377
 30
0.0
 41
1.0
 10
15.80155803399545
 20
10.82564293168258
 30
0.0
 41
1.0
  0
SPLINE
  5
AE
330
1F
100
AcDbEntity
  8
0
  6
Continuous
 62
     7
370
    15
100
AcDbSpline
210
0.0
220
0.0
230
1.0
 70
    12
 71
     3
 72
    11
 73
     7
 74
     0
 42
0.00000001
 43
0.00000001
 40
0.0
 40
0.0
 40
0.0
 40
0.0
 40
0.2082241447510724
 40
0.4387391478266361
 40
0.69936480559767
 40
0.9999999999999999
 40
0.9999999999999999
 40
0.9999999999999999
 40
0.9999999999999999
 10
20.72275128333483
 20
13.26893789864291
 30
0.0
 41
1.0
 10
20.68360429396337
 20
13.30236856290233
 30
0.0
 41
1.0
 10
20.60111954284411
 20
13.37280871846597
 30
0.0
 41
1.0
 10
20.43833545630431
 20
13.43545833810153
 30
0.0
 41
1.0
 10
20.24728157254114
 20
13.47457391897754
 30
0.0
 41
1.0
 10
20.10917448402849
 20
13.47880494793645
 30
0.0
 41
1.0
 10
20.03519845088351
 20
13.48107126707975
 30
0.0
 41
1.0
  0
SPLINE
  5
AF
330
1F
100
AcDbEntity
  8
0
  6
Continuous
 62
     7
370
    15
100
AcDbSpline
210
0.0
220
0.0
230
1.0
 70
    12
 71
     3
 72
    11
 73
     7
 74
     0
 42
0.00000001
 43
0.00000001
 40
0.0
 40
0.0
 40
0.0
 40
0.0
 40
0.2606617649866959
 40
0.5072864371608398
 40
0.750497725688577
 40
1.0
 40
1.0
 40
1.0
 40
1.0
 10
21.01462272643229
 20
12.54076378287401
 30
0.0
 41
1.0
 10
21.01139865792529
 20
12.61086654692745
 30
0.0
 41
1.0
 10
21.00512414265008
 20
12.74729691834657
 30
0.0
 41
1.0
 10
20.94887578796494
 20
12.94250304424915
 30
0.0
 41
1.0
 10
20.85647148912726
 20
13.12032469678202
 30
0.0
 41
1.0
 10
20.76770248727933
 20
13.21898028523581
 30
0.0
 41
1.0
 10
20.72275128333483
 20
13.26893789864291
 30
0.0
 41
1.0
  0
SPLINE
  5
B0
330
1F
100
AcDbEntity
  8
0
  6
Continuous
 62
     7
370
    15
100
AcDbSpline
210
0.0
220
0.0
230
1.0
 70
    12
 71
     3
 72
    11
 73
     7
 74
     0
 42
0.00000001
 43
0.00000001
 40
0.0
 40
0.0
 40
0.0
 40
0.0
 40
0.2344657548041434
 40
0.4719716016811083
 40
0.723772829407426
 40
1.0
 40
1.0
 40
1.0
 40
1.0
 10
20.7633725666525
 20
11.85020196647319
 30
0.0
 41
1.0
 10
20.80230156081913
 20
11.89476921317383
 30
0.0
 41
1.0
 10
20.88066430400101
 20
11.98448156722469
 30
0.0
 41
1.0
 10
20.95759183635209
 20
12.15133288413716
 30
0.0
 41
1.0
 10
21.00815724796837
 20
12.33816059152436
 30
0.0
 41
1.0
 10
21.01240211287156
 20
12.47117830723302
 30
0.0
 41
1.0
 10
21.01462272643229
 20
12.54076378287401
 30
0.0
 41
1.0
  0
SPLINE
  5
B1
330
1F
100
AcDbEntity
  8
0
  6
Continuous
 62
     7
370
    15
100
AcDbSpline
210
0.0
220
0.0
230
1.0
 70
    12
 71
     3
 72
    11
 73
     7
 74
     0
 42
0.00000001
 43
0.00000001
 40
0.0
 40
0.0
 40
0.0
 40
0.0
 40
0.2408494352746265
 40
0.4808461397046271
 40
0.7299412650305752
 40
1.0
 40
1.0
 40
1.0
 40
1.0
 10
20.88222743265607
 20
8.621562188704207
 30
0.0
 41
1.0
 10
20.92732604365527
 20
8.67246667460444
 30
0.0
 41
1.0
 10
21.01736359338116
 20
8.774095418349606
 30
0.0
 41
1.0
 10
21.10918405577599
 20
8.960186988238801
 30
0.0
 41
1.0
 10
21.16499375967975
 20
9.167942096474537
 30
0.0
 41
1.0
 10
21.17098321826992
 20
9.31424977275752
 30
0.0
 41
1.0
 10
21.1740988757536
 20
9.390357587791012
 30
0.0
 41
1.0
  0
SPLINE
  5
B2
330
1F
100
AcDbEntity
  8
0
  6
Continuous
 62
     7
370
    15
100
AcDbSpline
210
0.0
220
0.0
230
1.0
 70
    12
 71
     3
 72
    15
 73
    11
 74
     0
 42
0.00000001
 43
0.00000001
 40
0.0
 40
0.0
 40
0.0
 40
0.0
 40
0.1307337168621473
 40
0.2572401413314823
 40
0.3813471244690513
 40
0.5024256427530416
 40
0.6249300743135077
 40
0.7469798931560726
 40
0.8718365772980172
 40
1.0
 40
1.0
 40
1.0
 40
1.0
 10
22.4604395141471
 20
9.430978871108683
 30
0.0
 41
1.0
 10
22.45905870410252
 20
9.358140123078984
 30
0.0
 41
1.0
 10
22.45634173269274
 20
9.214817877774955
 30
0.0
 41
1.0
 10
22.42427858892454
 20
9.004443428313172
 30
0.0
 41
1.0
 10
22.37699678724319
 20
8.80279107853578
 30
0.0
 41
1.0
 10
22.31013300188376
 20
8.608888867324305
 30
0.0
 41
1.0
 10
22.22292112172959
 20
8.42451548635838
 30
0.0
 41
1.0
 10
22.11619554487363
 20
8.248422345987239
 30
0.0
 41
1.0
 10
21.99167055015053
 20
8.080180536236236
 30
0.0
 41
1.0
 10
21.89438220391188
 20
7.978162536602013
 30
0.0
 41
1.0
 10
21.84510229648284
 20
7.926486896379302
 30
0.0
 41
1.0
  0
SPLINE
  5
B3
330
1F
100
AcDbEntity
  8
0
  6
Continuous
 62
     7
370
    15
100
AcDbSpline
210
0.0
220
0.0
230
1.0
 70
    12
 71
     3
 72
    15
 73
    11
 74
     0
 42
0.00000001
 43
0.00000001
 40
0.0
 40
0.0
 40
0.0
 40
0.0
 40
0.1120573644424899
 40
0.2259624440624492
 40
0.3418485621441384
 40
0.4626956535834346
 40
0.5876916986440122
 40
0.7180086347750573
 40
0.8559046258148107
 40
1.0
 40
1.0
 40
1.0
 40
1.0
 10
18.25087096885468
 20
7.846748821718716
 30
0.0
 41
1.0
 10
18.21034198627218
 20
7.890101010016759
 30
0.0
 41
1.0
 10
18.12861573824492
 20
7.977520221347085
 30
0.0
 41
1.0
 10
18.02178243905816
 20
8.124159831749461
 30
0.0
 41
1.0
 10
17.92956364339079
 20
8.285560682650654
 30
0.0
 41
1.0
 10
17.85071829448462
 20
8.46022143137125
 30
0.0
 41
1.0
 10
17.7817874786699
 20
8.64728914253754
 30
0.0
 41
1.0
 10
17.73042515965441
 20
8.849203326193638
 30
0.0
 41
1.0
 10
17.6890092249372
 20
9.063660279236668
 30
0.0
 41
1.0
 10
17.67353221915533
 20
9.212166579665787
 30
0.0
 41
1.0
 10
17.66562359068499
 20
9.288052133509378
 30
0.0
 41
1.0
  0
SPLINE
  5
B4
330
1F
100
AcDbEntity
  8
0
  6
Continuous
 62
     7
370
    15
100
AcDbSpline
210
0.0
220
0.0
230
1.0
 70
    12
 71
     3
 72
    15
 73
    11
 74
     0
 42
0.00000001
 43
0.00000001
 40
0.0
 40
0.0
 40
0.0
 40
0.0
 40
0.1277757446836269
 40
0.2518920836048994
 40
0.374334973910585
 40
0.4954667520938109
 40
0.617743829924772
 40
0.7416753459972345
 40
0.8687061433993215
 40
1.0
 40
1.0
 40
1.0
 40
1.0
 10
20.11493652554422
 20
15.2353089096141
 30
0.0
 41
1.0
 10
19.96976254275943
 20
15.2319690998078
 30
0.0
 41
1.0
 10
19.68357225602384
 20
15.22538512995453
 30
0.0
 41
1.0
 10
19.26244698391159
 20
15.16050990071948
 30
0.0
 41
1.0
 10
18.85659503227413
 20
15.06057257469213
 30
0.0
 41
1.0
 10
18.46485945098007
 20
14.91982020254208
 30
0.0
 41
1.0
 10
18.08942454839961
 20
14.7363673901175
 30
0.0
 41
1.0
 10
17.72817127541706
 20
14.51377082568467
 30
0.0
 41
1.0
 10
17.38104598299537
 20
14.25159739109106
 30
0.0
 41
1.0
 10
17.16872847761065
 20
14.04895338093602
 30
0.0
 41
1.0
 10
17.06081781684385
 20
13.94595928727107
 30
0.0
 41
1.0
  0
SPLINE
  5
B5
330
1F
100
AcDbEntity
  8
0
  6
Continuous
 62
     7
370
    15
100
AcDbSpline
210
0.0
220
0.0
230
1.0
 70
    12
 71
     3
 72
    23
 73
    19
 74
     0
 42
0.00000001
 43
0.00000001
 40
0.0
 40
0.0
 40
0.0
 40
0.0
 40
0.0665470728845561
 40
0.1319215572224124
 40
0.1962241963187248
 40
0.2596384302251791
 40
0.3223268435629765
 40
0.3839258402782328
 40
0.444992970593661
 40
0.5062224623701154
 40
0.5669791324623124
 40
0.6276563810189448
 40
0.688607274067041
 40
0.7494090591568816
 40
0.8111843270784459
 40
0.873124679892153
 40
0.936329822491105
 40
1.0
 40
1.0
 40
1.0
 40
1.0
 10
15.80155803399545
 20
10.82564293168258
 30
0.0
 41
1.0
 10
15.8022645110372
 20
10.74888522901593
 30
0.0
 41
1.0
 10
15.80366501668605
 20
10.59672232799413
 30
0.0
 41
1.0
 10
15.81974219832824
 20
10.37089227266631
 30
0.0
 41
1.0
 10
15.84309954641314
 20
10.14938926514313
 30
0.0
 41
1.0
 10
15.87778442837097
 20
9.93244612908334
 30
0.0
 41
1.0
 10
15.92301284338521
 20
9.720676228237634
 30
0.0
 41
1.0
 10
15.97735424972865
 20
9.51386530514675
 30
0.0
 41
1.0
 10
16.04064852677181
 20
9.311381548319718
 30
0.0
 41
1.0
 10
16.11376277450976
 20
9.113209121838523
 30
0.0
 41
1.0
 10
16.1988770820973
 20
8.920414551520444
 30
0.0
 41
1.0
 10
16.29186728603311
 20
8.731666141444762
 30
0.0
 41
1.0
 10
16.39572335973645
 20
8.548567832211043
 30
0.0
 41
1.0
 10
16.50939879948922
 20
8.369951588904131
 30
0.0
 41
1.0
 10
16.63211730366677
 20
8.195985701491653
 30
0.0
 41
1.0
 10
16.76573339974441
 20
8.026747452764692
 30
0.0
 41
1.0
 10
16.9075287283601
 20
7.861335093067177
 30
0.0
 41
1.0
 10
17.00959675103011
 20
7.756454559644126
 30
0.0
 41
1.0
 10
17.06081781684385
 20
7.70382208411941
 30
0.0
 41
1.0
  0
SPLINE
  5
B6
330
1F
100
AcDbEntity
  8
0
  6
Continuous
 62
     7
370
    15
100
AcDbSpline
210
0.0
220
0.0
230
1.0
 70
    12
 71
     3
 72
    23
 73
    19
 74
     0
 42
0.00000001
 43
0.00000001
 40
0.0
 40
0.0
 40
0.0
 40
0.0
 40
0.065319131763219
 40
0.12923166589948
 40
0.1922049340898812
 40
0.2546521231351318
 40
0.3164700138539612
 40
0.3774536374499651
 40
0.4387263283013578
 40
0.4994767795004986
 40
0.5602705355074186
 40
0.6212865164738541
 40
0.6828133185583103
 40
0.7444667835057448
 40
0.8069064465263764
 40
0.8702042522781607
 40
0.9345184701711651
 40
1.0
 40
1.0
 40
1.0
 40
1.0
 10
23.23525288113265
 20
13.94595928727107
 30
0.0
 41
1.0
 10
23.18104822701094
 20
13.9986042251381
 30
0.0
 41
1.0
 10
23.07380617460509
 20
14.10276043233336
 30
0.0
 41
1.0
 10
22.90629741853506
 20
14.24912662962702
 30
0.0
 41
1.0
 10
22.73415067102226
 20
14.38460327336352
 30
0.0
 41
1.0
 10
22.55846169254354
 20
14.51139649335084
 30
0.0
 41
1.0
 10
22.37788526852643
 20
14.62693192828504
 30
0.0
 41
1.0
 10
22.19322422695411
 20
14.73308341284871
 30
0.0
 41
1.0
 10
22.0043743503953
 20
14.82891773715597
 30
0.0
 41
1.0
 10
21.81119575722047
 20
14.9151477989907
 30
0.0
 41
1.0
 10
21.61382407117797
 20
14.99055639247749
 30
0.0
 41
1.0
 10
21.41166253347767
 20
15.05485109014377
 30
0.0
 41
1.0
 10
21.20602357708151
 20
15.11091937898083
 30
0.0
 41
1.0
 10
20.9959456656017
 20
15.15564761689728
 30
0.0
 41
1.0
 10
20.78223223915004
 20
15.19228796639548
 30
0.0
 41
1.0
 10
20.56376832293433
 20
15.21752068085533
 30
0.0
 41
1.0
 10
20.34084185408888
 20
15.23310049134549
 30
0.0
 41
1.0
 10
20.19068843429227
 20
15.23456836975947
 30
0.0
 41
1.0
 10
20.11493652554422
 20
15.2353089096141
 30
0.0
 41
1.0
  0
SPLINE
  5
B7
330
1F
100
AcDbEntity
  8
0
  6
Continuous
 62
     7
370
    15
100
AcDbSpline
210
0.0
220
0.0
230
1.0
 70
    12
 71
     3
 72
    15
 73
    11
 74
     0
 42
0.00000001
 43
0.00000001
 40
0.0
 40
0.0
 40
0.0
 40
0.0
 40
0.1395571627363341
 40
0.273612212027683
 40
0.402682143319435
 40
0.5283157960377743
 40
0.6492159121293024
 40
0.7679474108686369
 40
0.8851720055688921
 40
1.0
 40
1.0
 40
1.0
 40
1.0
 10
17.66562359068499
 20
12.56333116249481
 30
0.0
 41
1.0
 10
17.68037731582912
 20
12.62722707042914
 30
0.0
 41
1.0
 10
17.70930309285967
 20
12.75249975702295
 30
0.0
 41
1.0
 10
17.76532690847723
 20
12.93337499483838
 30
0.0
 41
1.0
 10
17.83027746686222
 20
13.10416240266474
 30
0.0
 41
1.0
 10
17.90319836284033
 20
13.26501446167775
 30
0.0
 41
1.0
 10
17.98680602108771
 20
13.4150909959249
 30
0.0
 41
1.0
 10
18.07894325560082
 20
13.55522796781189
 30
0.0
 41
1.0
 10
18.17850207738611
 20
13.68694258674438
 30
0.0
 41
1.0
 10
18.25408907720108
 20
13.76560971030391
 30
0.0
 41
1.0
 10
18.29149225217238
 20
13.80453704164641
 30
0.0
 41
1.0
  0
SPLINE
  5
B8
330
1F
100
AcDbEntity
  8
0
  6
Continuous
 62
     7
370
    15
100
AcDbSpline
210
0.0
220
0.0
230
1.0
 70
    12
 71
     3
 72
    23
 73
    19
 74
     0
 42
0.00000001
 43
0.00000001
 40
0.0
 40
0.0
 40
0.0
 40
0.0
 40
0.065303197966089
 40
0.1292001414273749
 40
0.192158048065151
 40
0.2545900038883003
 40
0.3161598056724221
 40
0.3777204518687292
 40
0.4383957295665297
 40
0.4991313614418535
 40
0.5599102875612835
 40
0.6210452213385819
 40
0.6824454237535265
 40
0.7445998894386942
 40
0.8069535493188549
 40
0.8702359143510761
 40
0.9345344435833022
 40
0.9999999999999999
 40
0.9999999999999999
 40
0.9999999999999999
 40
0.9999999999999999
 10
23.23525288113265
 20
7.70382208411941
 30
0.0
 41
1.0
 10
23.28789481810881
 20
7.758028616128751
 30
0.0
 41
1.0
 10
23.392045088144
 20
7.865274383870692
 30
0.0
 41
1.0
 10
23.53845486636407
 20
8.032755868013675
 30
0.0
 41
1.0
 10
23.67376944501734
 20
8.205004032074658
 30
0.0
 41
1.0
 10
23.80100105341485
 20
8.380101223160722
 30
0.0
 41
1.0
 10
23.9145870434261
 20
8.562386551571937
 30
0.0
 41
1.0
 10
24.02223867677867
 20
8.74588031783308
 30
0.0
 41
1.0
 10
24.11665689073153
 20
8.935477764003918
 30
0.0
 41
1.0
 10
24.203190906703
 20
9.127784821366067
 30
0.0
 41
1.0
 10
24.27770755845813
 20
9.325612218366249
 30
0.0
 41
1.0
 10
24.34522957096458
 20
9.526808059764996
 30
0.0
 41
1.0
 10
24.39767905815237
 20
9.734051600597635
 30
0.0
 41
1.0
 10
24.44594054509193
 20
9.94373826093692
 30
0.0
 41
1.0
 10
24.47938477280527
 20
10.15855612970402
 30
0.0
 41
1.0
 10
24.50550133139573
 20
10.37677631842673
 30
0.0
 41
1.0
 10
24.52084036718043
 20
10.59974655046069
 30
0.0
 41
1.0
 10
24.52234096487585
 20
10.74989402320369
 30
0.0
 41
1.0
 10
24.5230980115009
 20
10.82564293168258
 30
0.0
 41
1.0
  0
SPLINE
  5
B9
330
1F
100
AcDbEntity
  8
0
  6
Continuous
 62
     7
370
    15
100
AcDbSpline
210
0.0
220
0.0
230
1.0
 70
    12
 71
     3
 72
    15
 73
    11
 74
     0
 42
0.00000001
 43
0.00000001
 40
0.0
 40
0.0
 40
0.0
 40
0.0
 40
0.1658225337774016
 40
0.3186452840581378
 40
0.4588954213098374
 40
0.5871258260335795
 40
0.7052349058701858
 40
0.811826609069018
 40
0.9099385960080131
 40
1.0
 40
1.0
 40
1.0
 40
1.0
 10
18.9414327852554
 20
9.288052133509378
 30
0.0
 41
1.0
 10
18.94551512674297
 20
9.246373897359803
 30
0.0
 41
1.0
 10
18.95335977145626
 20
9.16628482204287
 30
0.0
 41
1.0
 10
18.97153529132693
 20
9.051805759160533
 30
0.0
 41
1.0
 10
18.99347625707988
 20
8.947596016865004
 30
0.0
 41
1.0
 10
19.0214835090584
 20
8.854109965642595
 30
0.0
 41
1.0
 10
19.04947702204615
 20
8.769223594238703
 30
0.0
 41
1.0
 10
19.08742935586785
 20
8.697012231433268
 30
0.0
 41
1.0
 10
19.12445651217616
 20
8.631961482880627
 30
0.0
 41
1.0
 10
19.15737126530785
 20
8.597455679690285
 30
0.0
 41
1.0
 10
19.17312454936371
 20
8.580940905386518
 30
0.0
 41
1.0
  0
SPLINE
  5
BA
330
1F
100
AcDbEntity
  8
0
  6
Continuous
 62
     7
370
    15
100
AcDbSpline
210
0.0
220
0.0
230
1.0
 70
    12
 71
     3
 72
    11
 73
     7
 74
     0
 42
0.00000001
 43
0.00000001
 40
0.0
 40
0.0
 40
0.0
 40
0.0
 40
0.2639016856408256
 40
0.5119694419202268
 40
0.7529910680944212
 40
1.0
 40
1.0
 40
1.0
 40
1.0
 10
20.03519845088351
 20
13.48107126707975
 30
0.0
 41
1.0
 10
19.96310887503767
 20
13.47784773308632
 30
0.0
 41
1.0
 10
19.82325505097267
 20
13.47159407504094
 30
0.0
 41
1.0
 10
19.62379670267175
 20
13.41599137615512
 30
0.0
 41
1.0
 10
19.44368395486217
 20
13.32293341452601
 30
0.0
 41
1.0
 10
19.34395841084232
 20
13.23414079900494
 30
0.0
 41
1.0
 10
19.29348390734202
 20
13.18919982398229
 30
0.0
 41
1.0
  0
SPLINE
  5
BB
330
1F
100
AcDbEntity
  8
0
  6
Continuous
 62
     7
370
    15
100
AcDbSpline
210
0.0
220
0.0
230
1.0
 70
    12
 71
     3
 72
    15
 73
    11
 74
     0
 42
0.00000001
 43
0.00000001
 40
0.0
 40
0.0
 40
0.0
 40
0.0
 40
0.1420038367254147
 40
0.2764195097198272
 40
0.4054485558423104
 40
0.5298658848471409
 40
0.6500487978402835
 40
0.7668686433555136
 40
0.8833350428421317
 40
1.0
 40
1.0
 40
1.0
 40
1.0
 10
22.26034208150809
 20
12.65961864887769
 30
0.0
 41
1.0
 10
22.25936067028507
 20
12.60038766615588
 30
0.0
 41
1.0
 10
22.25745029085193
 20
12.48509078698903
 30
0.0
 41
1.0
 10
22.23756491671285
 20
12.31688015982085
 30
0.0
 41
1.0
 10
22.20420546566129
 20
12.15848018633922
 30
0.0
 41
1.0
 10
22.15988710164271
 20
12.00885919938994
 30
0.0
 41
1.0
 10
22.10072536527255
 20
11.86989609487095
 30
0.0
 41
1.0
 10
22.02942153149789
 20
11.74070249627527
 30
0.0
 41
1.0
 10
21.94564008299024
 20
11.62060292639239
 30
0.0
 41
1.0
 10
21.87863391500712
 20
11.55002118432898
 30
0.0
 41
1.0
 10
21.84510229648284
 20
11.51470025610855
 30
0.0
 41
1.0
  0
SPLINE
  5
BC
330
1F
100
AcDbEntity
  8
0
  6
Continuous
 62
     7
370
    15
100
AcDbSpline
210
0.0
220
0.0
230
1.0
 70
    12
 71
     3
 72
    15
 73
    11
 74
     0
 42
0.00000001
 43
0.00000001
 40
0.0
 40
0.0
 40
0.0
 40
0.0
 40
0.1350730896866002
 40
0.2647308638477702
 40
0.3903941483314358
 40
0.5130056044867413
 40
0.6337887801892398
 40
0.7550836776203693
 40
0.8759016991714673
 40
1.0
 40
1.0
 40
1.0
 40
1.0
 10
21.92484037114348
 20
10.65413084656358
 30
0.0
 41
1.0
 10
21.96710834461664
 20
10.60907434441177
 30
0.0
 41
1.0
 10
22.04994969485598
 20
10.52076773378846
 30
0.0
 41
1.0
 10
22.16117558260794
 20
10.38069120933827
 30
0.0
 41
1.0
 10
22.25293710057851
 20
10.23387238317122
 30
0.0
 41
1.0
 10
22.32883301024
 20
10.08285232188543
 30
0.0
 41
1.0
 10
22.38807030173731
 20
9.926624479937377
 30
0.0
 41
1.0
 10
22.43032230514929
 20
9.765823821265748
 30
0.0
 41
1.0
 10
22.45465700772658
 20
9.599718800643407
 30
0.0
 41
1.0
 10
22.45849487787472
 20
9.487725507204386
 30
0.0
 41
1.0
 10
22.4604395141471
 20
9.430978871108683
 30
0.0
 41
1.0
  0
SPLINE
  5
BD
330
1F
100
AcDbEntity
  8
0
  6
Continuous
 62
     7
370
    15
100
AcDbSpline
210
0.0
220
0.0
230
1.0
 70
    12
 71
     3
 72
    23
 73
    19
 74
     0
 42
0.00000001
 43
0.00000001
 40
0.0
 40
0.0
 40
0.0
 40
0.0
 40
0.0654890124593454
 40
0.1298105795931248
 40
0.1931156184393985
 40
0.2554916193823323
 40
0.3176683547598031
 40
0.3790905566175882
 40
0.4398355699351358
 40
0.5010415794457209
 40
0.5617989726509633
 40
0.6224959900540264
 40
0.6840786931795285
 40
0.7453046672648738
 40
0.8077589922039141
 40
0.8707394564036194
 40
0.934986439304417
 40
1.0
 40
1.0
 40
1.0
 40
1.0
 10
24.5230980115009
 20
10.82564293168258
 30
0.0
 41
1.0
 10
24.52234085848703
 20
10.90139180407365
 30
0.0
 41
1.0
 10
24.52084004991054
 20
11.05153920528379
 30
0.0
 41
1.0
 10
24.50550256595793
 20
11.27450996371286
 30
0.0
 41
1.0
 10
24.47938025027368
 20
11.49272819957858
 30
0.0
 41
1.0
 10
24.44595714057904
 20
11.70755323176401
 30
0.0
 41
1.0
 10
24.39761762534132
 20
11.91721342421563
 30
0.0
 41
1.0
 10
24.34557163742975
 20
12.1240922276823
 30
0.0
 41
1.0
 10
24.27704583047633
 20
12.32493711779574
 30
0.0
 41
1.0
 10
24.20359489826746
 20
12.52315018876796
 30
0.0
 41
1.0
 10
24.1166174404263
 20
12.71579850191811
 30
0.0
 41
1.0
 10
24.02218578165656
 20
12.90536733478942
 30
0.0
 41
1.0
 10
23.91505665974658
 20
13.08869916640267
 30
0.0
 41
1.0
 10
23.80048453452471
 20
13.26984692851862
 30
0.0
 41
1.0
 10
23.67392055968848
 20
13.44489436713603
 30
0.0
 41
1.0
 10
23.53788312567826
 20
13.61702884119507
 30
0.0
 41
1.0
 10
23.39300739203536
 20
13.78588424311982
 30
0.0
 41
1.0
 10
23.28804521033655
 20
13.89239039482039
 30
0.0
 41
1.0
 10
23.23525288113265
 20
13.94595928727107
 30
0.0
 41
1.0
  0
SPLINE
  5
BE
330
1F
100
AcDbEntity
  8
0
  6
Continuous
 62
     7
370
    15
100
AcDbSpline
210
0.0
220
0.0
230
1.0
 70
    12
 71
     3
 72
    15
 73
    11
 74
     0
 42
0.00000001
 43
0.00000001
 40
0.0
 40
0.0
 40
0.0
 40
0.0
 40
0.1349313103774256
 40
0.2644529894089711
 40
0.3899843715743878
 40
0.5124671287594468
 40
0.6341486778584055
 40
0.7542567459331193
 40
0.8760319588064698
 40
1.0
 40
1.0
 40
1.0
 40
1.0
 10
21.72474293850449
 20
13.88427511630719
 30
0.0
 41
1.0
 10
21.76700948862774
 20
13.83921811542826
 30
0.0
 41
1.0
 10
21.84984804923186
 20
13.7509105273457
 30
0.0
 41
1.0
 10
21.96109401133285
 20
13.61084103674047
 30
0.0
 41
1.0
 10
22.05278274136889
 20
13.46399670643138
 30
0.0
 41
1.0
 10
22.12915306774325
 20
13.31264899109053
 30
0.0
 41
1.0
 10
22.18735048862914
 20
13.15606727064442
 30
0.0
 41
1.0
 10
22.23068494045271
 20
12.99507327425162
 30
0.0
 41
1.0
 10
22.25439852455833
 20
12.82882697191147
 30
0.0
 41
1.0
 10
22.2583491450676
 20
12.71635595885192
 30
0.0
 41
1.0
 10
22.26034208150809
 20
12.65961864887769
 30
0.0
 41
1.0
  0
SPLINE
  5
BF
330
1F
100
AcDbEntity
  8
0
  6
Continuous
 62
     7
370
    15
100
AcDbSpline
210
0.0
220
0.0
230
1.0
 70
    12
 71
     3
 72
    15
 73
    11
 74
     0
 42
0.00000001
 43
0.00000001
 40
0.0
 40
0.0
 40
0.0
 40
0.0
 40
0.1180753345343377
 40
0.2364243388828644
 40
0.3559520053516929
 40
0.4762632997151315
 40
0.5995094471704845
 40
0.7268862430983462
 40
0.8594777714332639
 40
1.0
 40
1.0
 40
1.0
 40
1.0
 10
19.17312454936371
 20
8.580940905386518
 30
0.0
 41
1.0
 10
19.1976387464466
 20
8.557691852473967
 30
0.0
 41
1.0
 10
19.24672395853956
 20
8.511139861017028
 30
0.0
 41
1.0
 10
19.33077786530841
 20
8.453397047744499
 30
0.0
 41
1.0
 10
19.41898943561187
 20
8.401224653150008
 30
0.0
 41
1.0
 10
19.5148971489428
 20
8.360968667237406
 30
0.0
 41
1.0
 10
19.6161381572389
 20
8.329176575598499
 30
0.0
 41
1.0
 10
19.72347774208202
 20
8.306857260380532
 30
0.0
 41
1.0
 10
19.83724167463022
 20
8.292944710293106
 30
0.0
 41
1.0
 10
19.91529860116059
 20
8.291379357885122
 30
0.0
 41
1.0
 10
19.9554603762229
 20
8.290573954263834
 30
0.0
 41
1.0
  0
SPLINE
  5
C0
330
1F
100
AcDbEntity
  8
0
  6
Continuous
 62
     7
370
    15
100
AcDbSpline
210
0.0
220
0.0
230
1.0
 70
    12
 71
     3
 72
    23
 73
    19
 74
     0
 42
0.00000001
 43
0.00000001
 40
0.0
 40
0.0
 40
0.0
 40
0.0
 40
0.0653936862967313
 40
0.1297600766041982
 40
0.1928790535158507
 40
0.2552912591064196
 40
0.3174535497038709
 40
0.3788492807356386
 40
0.4395422559374017
 40
0.5005331243524229
 40
0.5612838703059359
 40
0.6224936254921741
 40
0.6836185504560555
 40
0.7452281714208389
 40
0.8077152735574771
 40
0.8708886459303343
 40
0.9348346974729411
 40
1.0
 40
1.0
 40
1.0
 40
1.0
 10
20.11493652554422
 20
5.826216099657336
 30
0.0
 41
1.0
 10
20.02915610727146
 20
5.827491597089629
 30
0.0
 41
1.0
 10
19.85894283017159
 20
5.830022554646319
 30
0.0
 41
1.0
 10
19.60636098303189
 20
5.846610639430074
 30
0.0
 41
1.0
 10
19.3587720712335
 20
5.875012081759502
 30
0.0
 41
1.0
 10
19.11598767764896
 20
5.916396506018108
 30
0.0
 41
1.0
 10
18.87715380281806
 20
5.966551184420307
 30
0.0
 41
1.0
 10
18.64388772482922
 20
6.030292972658063
 30
0.0
 41
1.0
 10
18.41533853197852
 20
6.104275895362115
 30
0.0
 41
1.0
 10
18.19153990114907
 20
6.189424920056649
 30
0.0
 41
1.0
 10
17.97279811445279
 20
6.288410680424053
 30
0.0
 41
1.0
 10
17.75811622243358
 20
6.396164889678319
 30
0.0
 41
1.0
 10
17.54774470308886
 20
6.514684459205964
 30
0.0
 41
1.0
 10
17.34490924687903
 20
6.64866478424221
 30
0.0
 41
1.0
 10
17.14473542913264
 20
6.791125855600328
 30
0.0
 41
1.0
 10
16.94880611041443
 20
6.944493824486546
 30
0.0
 41
1.0
 10
16.75859418762017
 20
7.110374699689695
 30
0.0
 41
1.0
 10
16.63749353076579
 20
7.228806964624103
 30
0.0
 41
1.0
 10
16.57637140098103
 20
7.288582299094238
 30
0.0
 41
1.0
  0
SPLINE
  5
C1
330
1F
100
AcDbEntity
  8
0
  6
Continuous
 62
     7
370
    15
100
AcDbSpline
210
0.0
220
0.0
230
1.0
 70
    12
 71
     3
 72
    23
 73
    19
 74
     0
 42
0.00000001
 43
0.00000001
 40
0.0
 40
0.0
 40
0.0
 40
0.0
 40
0.0640747890763309
 40
0.1275076568208506
 40
0.1901239365095842
 40
0.2519927833385504
 40
0.3133247125787091
 40
0.3741878801192655
 40
0.4349578183466694
 40
0.4955672585954486
 40
0.5566593075486748
 40
0.6175379994275888
 40
0.6794009713862215
 40
0.7416925197199412
 40
0.804766838001349
 40
0.8685425638990882
 40
0.933931210916645
 40
0.9999999999999999
 40
0.9999999999999999
 40
0.9999999999999999
 40
0.9999999999999999
 10
25.21065084395214
 20
10.82564293168258
 30
0.0
 41
1.0
 10
25.20931940753111
 20
10.74137314183862
 30
0.0
 41
1.0
 10
25.20666987343677
 20
10.57367780333369
 30
0.0
 41
1.0
 10
25.19077008922011
 20
10.32395396797983
 30
0.0
 41
1.0
 10
25.15964116026439
 20
10.07866531676427
 30
0.0
 41
1.0
 10
25.11987078219977
 20
9.837421218427561
 30
0.0
 41
1.0
 10
25.06635487387556
 20
9.601223135503005
 30
0.0
 41
1.0
 10
25.00422251925112
 20
9.368603805390324
 30
0.0
 41
1.0
 10
24.92639170717242
 20
9.141746648927588
 30
0.0
 41
1.0
 10
24.83931236586691
 20
8.918020405634817
 30
0.0
 41
1.0
 10
24.74004818843825
 20
8.699238620591423
 30
0.0
 41
1.0
 10
24.62993842930699
 20
8.483837922031446
 30
0.0
 41
1.0
 10
24.50614648830556
 20
8.274181122329642
 30
0.0
 41
1.0
 10
24.37244818969244
 20
8.067274121251451
 30
0.0
 41
1.0
 10
24.22600033055847
 20
7.866041554511794
 30
0.0
 41
1.0
 10
24.06897269920231
 20
7.667789976044166
 30
0.0
 41
1.0
 10
23.89989691514322
 20
7.474323620859584
 30
0.0
 41
1.0
 10
23.77897072669132
 20
7.350709260718252
 30
0.0
 41
1.0
 10
23.7181948050207
 20
7.288582299094238
 30
0.0
 41
1.0
  0
SPLINE
  5
C2
330
1F
100
AcDbEntity
  8
0
  6
Continuous
 62
     7
370
    15
100
AcDbSpline
210
0.0
220
0.0
230
1.0
 70
    12
 71
     3
 72
    23
 73
    19
 74
     0
 42
0.00000001
 43
0.00000001
 40
0.0
 40
0.0
 40
0.0
 40
0.0
 40
0.0651881781839418
 40
0.1291566773770236
 40
0.1923522261587143
 40
0.2545504496064623
 40
0.3165024404737861
 40
0.377648822758608
 40
0.4385387143934387
 40
0.4996599746638772
 40
0.560315203748601
 40
0.6213933736688277
 40
0.6828106570854193
 40
0.7446208271085053
 40
0.8070549419075805
 40
0.8705759991488857
 40
0.9345833578744436
 40
1.0
 40
1.0
 40
1.0
 40
1.0
 10
16.57637140098103
 20
7.288582299094238
 30
0.0
 41
1.0
 10
16.51660361641769
 20
7.34970976328043
 30
0.0
 41
1.0
 10
16.39818631003733
 20
7.470820989130034
 30
0.0
 41
1.0
 10
16.23219529688794
 20
7.660955093744097
 30
0.0
 41
1.0
 10
16.07948850269625
 20
7.856852928796526
 30
0.0
 41
1.0
 10
15.93549496129662
 20
8.055959208179734
 30
0.0
 41
1.0
 10
15.80292734592698
 20
8.259766559907105
 30
0.0
 41
1.0
 10
15.6843727527887
 20
8.470018491781092
 30
0.0
 41
1.0
 10
15.57534871139233
 20
8.684112032203705
 30
0.0
 41
1.0
 10
15.47805228718629
 20
8.903097330999291
 30
0.0
 41
1.0
 10
15.39134098158573
 20
9.126782664826639
 30
0.0
 41
1.0
 10
15.3184225330082
 20
9.355715853003344
 30
0.0
 41
1.0
 10
15.25450361202916
 20
9.588890454673813
 30
0.0
 41
1.0
 10
15.20401640273719
 20
9.827159692290227
 30
0.0
 41
1.0
 10
15.16268515854083
 20
10.06996867193771
 30
0.0
 41
1.0
 10
15.13457996733486
 20
10.31758548480188
 30
0.0
 41
1.0
 10
15.11774620144743
 20
10.57014536536728
 30
0.0
 41
1.0
 10
15.11526122106931
 20
10.73986107116181
 30
0.0
 41
1.0
 10
15.11400520154416
 20
10.82564293168258
 30
0.0
 41
1.0
  0
SPLINE
  5
C3
330
1F
100
AcDbEntity
  8
0
  6
Continuous
 62
     7
370
    15
100
AcDbSpline
210
0.0
220
0.0
230
1.0
 70
    12
 71
     3
 72
    23
 73
    19
 74
     0
 42
0.00000001
 43
0.00000001
 40
0.0
 40
0.0
 40
0.0
 40
0.0
 40
0.0662580134606915
 40
0.131125696721605
 40
0.1951327405877967
 40
0.2584309902001312
 40
0.3207311112503964
 40
0.3822625174663938
 40
0.4434453140919516
 40
0.5045435456506581
 40
0.565381556156275
 40
0.6259757633630221
 40
0.6869904734725403
 40
0.7480713141474088
 40
0.809893254256671
 40
0.8726126042759722
 40
0.9358481623873331
 40
1.0
 40
1.0
 40
1.0
 40
1.0
 10
20.11493652554422
 20
15.8265742556826
 30
0.0
 41
1.0
 10
20.20322435987644
 20
15.82531094079259
 30
0.0
 41
1.0
 10
20.37794743387447
 20
15.82281081987928
 30
0.0
 41
1.0
 10
20.63753398579227
 20
15.80610473754827
 30
0.0
 41
1.0
 10
20.89212859934813
 20
15.77773820125287
 30
0.0
 41
1.0
 10
21.14150260178022
 20
15.73671790692883
 30
0.0
 41
1.0
 10
21.38579729112895
 20
15.68625087729007
 30
0.0
 41
1.0
 10
21.62397400932858
 20
15.62221096881853
 30
0.0
 41
1.0
 10
21.85773896266163
 20
15.54886745806324
 30
0.0
 41
1.0
 10
22.08638529493108
 20
15.46326888764617
 30
0.0
 41
1.0
 10
22.30899506082934
 20
15.36503989107523
 30
0.0
 41
1.0
 10
22.52667500172977
 20
15.25657251432829
 30
0.0
 41
1.0
 10
22.73834798687504
 20
15.13613009641191
 30
0.0
 41
1.0
 10
22.94537945224785
 20
15.00483065532059
 30
0.0
 41
1.0
 10
23.14721354197125
 20
14.86165873384812
 30
0.0
 41
1.0
 10
23.34371510272488
 20
14.70666446670055
 30
0.0
 41
1.0
 10
23.53594015796701
 20
14.54145146177398
 30
0.0
 41
1.0
 10
23.65715263460863
 20
14.42257122633933
 30
0.0
 41
1.0
 10
23.7181948050207
 20
14.36270356427114
 30
0.0
 41
1.0
  0
SPLINE
  5
C4
330
1F
100
AcDbEntity
  8
0
  6
Continuous
 62
     7
370
    15
100
AcDbSpline
210
0.0
220
0.0
230
1.0
 70
    12
 71
     3
 72
    23
 73
    19
 74
     0
 42
0.00000001
 43
0.00000001
 40
0.0
 40
0.0
 40
0.0
 40
0.0
 40
0.0641626952787583
 40
0.1274089559763681
 40
0.189610368140581
 40
0.2514427715819588
 40
0.3130536289087768
 40
0.3735656648372944
 40
0.4345070515639664
 40
0.4953553588721117
 40
0.5561116103182528
 40
0.6173047621012157
 40
0.6792104565602886
 40
0.741521121874553
 40
0.8044585638362916
 40
0.8684764408623074
 40
0.9337307724040194
 40
1.0
 40
1.0
 40
1.0
 40
1.0
 10
23.7181948050207
 20
7.288582299094238
 30
0.0
 41
1.0
 10
23.65714790027758
 20
7.228720415507809
 30
0.0
 41
1.0
 10
23.5359260225943
 20
7.109851654502929
 30
0.0
 41
1.0
 10
23.34430467331379
 20
6.945013263251115
 30
0.0
 41
1.0
 10
23.1481258198292
 20
6.790735890919101
 30
0.0
 41
1.0
 10
22.94621230936961
 20
6.64773295914109
 30
0.0
 41
1.0
 10
22.73968941747809
 20
6.515599299353484
 30
0.0
 41
1.0
 10
22.52715966220931
 20
6.395695754628464
 30
0.0
 41
1.0
 10
22.30934178198557
 20
6.288058983182707
 30
0.0
 41
1.0
 10
22.08677385080332
 20
6.189829760829587
 30
0.0
 41
1.0
 10
21.85885219361731
 20
6.103637240465832
 30
0.0
 41
1.0
 10
21.62503101756464
 20
6.030359677727751
 30
0.0
 41
1.0
 10
21.38624188694878
 20
5.966750068947428
 30
0.0
 41
1.0
 10
21.14198388943235
 20
5.916214218807895
 30
0.0
 41
1.0
 10
20.89315369996375
 20
5.874917363308777
 30
0.0
 41
1.0
 10
20.63853883935861
 20
5.846627893972233
 30
0.0
 41
1.0
 10
20.37844640628434
 20
5.83002115627635
 30
0.0
 41
1.0
 10
20.20322385163399
 20
5.827490959915115
 30
0.0
 41
1.0
 10
20.11493652554422
 20
5.826216099657336
 30
0.0
 41
1.0
  0
SPLINE
  5
C5
330
1F
100
AcDbEntity
  8
0
  6
Continuous
 62
     7
370
    15
100
AcDbSpline
210
0.0
220
0.0
230
1.0
 70
    12
 71
     3
 72
    23
 73
    19
 74
     0
 42
0.00000001
 43
0.00000001
 40
0.0
 40
0.0
 40
0.0
 40
0.0
 40
0.0651543087909912
 40
0.1293780198035141
 40
0.1924782441096536
 40
0.254954804336995
 40
0.3166677838007769
 40
0.3779721736661382
 40
0.4388304291404868
 40
0.4999199330397628
 40
0.5605436478860826
 40
0.6215900838233163
 40
0.6829754570659466
 40
0.7447535127855611
 40
0.8071551891022822
 40
0.8706432431256983
 40
0.9346173459689034
 40
1.0
 40
1.0
 40
1.0
 40
1.0
 10
16.57637140098103
 20
14.36270356427114
 30
0.0
 41
1.0
 10
16.6373810063474
 20
14.42261185806342
 30
0.0
 41
1.0
 10
16.7585288180234
 20
14.54157277660406
 30
0.0
 41
1.0
 10
16.95063420114854
 20
14.70567802028127
 30
0.0
 41
1.0
 10
17.14439607075247
 20
14.86217941097713
 30
0.0
 41
1.0
 10
17.34469801850099
 20
15.00477750911076
 30
0.0
 41
1.0
 10
17.54990557152238
 20
15.13572901524351
 30
0.0
 41
1.0
 10
17.75881443354705
 20
15.25657254325424
 30
0.0
 41
1.0
 10
17.97347960218793
 20
15.36510225978084
 30
0.0
 41
1.0
 10
18.19237124455278
 20
15.46256135194997
 30
0.0
 41
1.0
 10
18.41608155470866
 20
15.54922927720339
 30
0.0
 41
1.0
 10
18.6450080151801
 20
15.62215941085236
 30
0.0
 41
1.0
 10
18.87818443564391
 20
15.6860751728449
 30
0.0
 41
1.0
 10
19.11645318104279
 20
15.73656323704905
 30
0.0
 41
1.0
 10
19.35926229461268
 20
15.77789424864135
 30
0.0
 41
1.0
 10
19.60687907086356
 20
15.80599950343929
 30
0.0
 41
1.0
 10
19.85943896123535
 20
15.82283325229436
 30
0.0
 41
1.0
 10
20.02915466569712
 20
15.82531823498748
 30
0.0
 41
1.0
 10
20.11493652554422
 20
15.8265742556826
 30
0.0
 41
1.0
  0
SPLINE
  5
C6
330
1F
100
AcDbEntity
  8
0
  6
Continuous
 62
     7
370
    15
100
AcDbSpline
210
0.0
220
0.0
230
1.0
 70
    12
 71
     3
 72
    23
 73
    19
 74
     0
 42
0.00000001
 43
0.00000001
 40
0.0
 40
0.0
 40
0.0
 40
0.0
 40
0.066068789083355
 40
0.1314574361009117
 40
0.195233161998651
 40
0.2583074802800587
 40
0.3205990286137784
 40
0.382462000572411
 40
0.443340692451325
 40
0.5044327414045512
 40
0.5650421816533305
 40
0.6258121198807343
 40
0.6866752874212906
 40
0.7480072166614493
 40
0.8098760634904155
 40
0.8724923431791493
 40
0.9359252109236689
 40
0.9999999999999999
 40
0.9999999999999999
 40
0.9999999999999999
 40
0.9999999999999999
 10
23.7181948050207
 20
14.36270356427114
 30
0.0
 41
1.0
 10
23.77897072669132
 20
14.30057660264705
 30
0.0
 41
1.0
 10
23.89989691514322
 20
14.17696224250556
 30
0.0
 41
1.0
 10
24.06897269920231
 20
13.98349588732098
 30
0.0
 41
1.0
 10
24.22600033055847
 20
13.78524430885353
 30
0.0
 41
1.0
 10
24.37244818969244
 20
13.58401174211387
 30
0.0
 41
1.0
 10
24.50614648830556
 20
13.37710474103573
 30
0.0
 41
1.0
 10
24.62993842930699
 20
13.16744794133388
 30
0.0
 41
1.0
 10
24.74004818843822
 20
12.95204724277372
 30
0.0
 41
1.0
 10
24.83931236586691
 20
12.73326545773054
 30
0.0
 41
1.0
 10
24.92639170717242
 20
12.50953921443773
 30
0.0
 41
1.0
 10
25.00422251925112
 20
12.28268205797477
 30
0.0
 41
1.0
 10
25.06635487387556
 20
12.05006272786231
 30
0.0
 41
1.0
 10
25.11987078219977
 20
11.81386464493757
 30
0.0
 41
1.0
 10
25.15964116026439
 20
11.57262054660105
 30
0.0
 41
1.0
 10
25.19077008922011
 20
11.32733189538547
 30
0.0
 41
1.0
 10
25.20666987343677
 20
11.07760806003143
 30
0.0
 41
1.0
 10
25.20931940753111
 20
10.90991272152646
 30
0.0
 41
1.0
 10
25.21065084395214
 20
10.82564293168258
 30
0.0
 41
1.0
  0
SPLINE
  5
C7
330
1F
100
AcDbEntity
  8
0
  6
Continuous
 62
     7
370
    15
100
AcDbSpline
210
0.0
220
0.0
230
1.0
 70
    12
 71
     3
 72
    23
 73
    19
 74
     0
 42
0.00000001
 43
0.00000001
 40
0.0
 40
0.0
 40
0.0
 40
0.0
 40
0.0654166421255566
 40
0.1294240008511144
 40
0.1929450580924196
 40
0.2553791728914948
 40
0.3171893429145809
 40
0.3786066263311723
 40
0.4396847962513991
 40
0.5003400253361228
 40
0.5614612856065614
 40
0.6223511772413921
 40
0.6834975595262138
 40
0.7454495503935378
 40
0.8076477738412857
 40
0.8708433226229763
 40
0.9348118218160582
 40
1.0
 40
1.0
 40
1.0
 40
1.0
 10
15.11400520154416
 20
10.82564293168258
 30
0.0
 41
1.0
 10
15.11526122106931
 20
10.91142479220326
 30
0.0
 41
1.0
 10
15.11774620144743
 20
11.08114049799808
 30
0.0
 41
1.0
 10
15.13457996733486
 20
11.33370037856344
 30
0.0
 41
1.0
 10
15.16268515854083
 20
11.58131719142738
 30
0.0
 41
1.0
 10
15.20401640273719
 20
11.82412617107509
 30
0.0
 41
1.0
 10
15.25450361202916
 20
12.06239540869151
 30
0.0
 41
1.0
 10
15.3184225330082
 20
12.29557001036198
 30
0.0
 41
1.0
 10
15.39134098158573
 20
12.52450319853851
 30
0.0
 41
1.0
 10
15.47805228718629
 20
12.74818853236603
 30
0.0
 41
1.0
 10
15.57534871139233
 20
12.96717383116161
 30
0.0
 41
1.0
 10
15.6843727527887
 20
13.18126737158403
 30
0.0
 41
1.0
 10
15.80292734592698
 20
13.39151930345802
 30
0.0
 41
1.0
 10
15.93549496129659
 20
13.59532665518559
 30
0.0
 41
1.0
 10
16.07948850269625
 20
13.79443293456855
 30
0.0
 41
1.0
 10
16.23219529688794
 20
13.99033076962122
 30
0.0
 41
1.0
 10
16.39818631003733
 20
14.18046487423529
 30
0.0
 41
1.0
 10
16.51660361641769
 20
14.30157610008489
 30
0.0
 41
1.0
 10
16.57637140098103
 20
14.36270356427114
 30
0.0
 41
1.0
  0
LINE
  5
312
330
1F
100
AcDbEntity
  8
0
100
AcDbLine
 10
23.46264586183859
 20
7.047869043374128
 30
0.0
 11
23.96756630503662
 21
7.55278948657216
 31
0.0
  0
LINE
  5
313
330
1F
100
AcDbEntity
  8
0
100
AcDbLine
 10
23.09152026543405
 20
6.751696765775364
 30
0.0
 11
24.27687202327128
 21
7.937048523612597
 31
0.0
  0
LINE
  5
314
330
1F
100
AcDbEntity
  8
0
100
AcDbLine
 10
22.85491209716686
 20
6.590041916313947
 30
0.0
 11
24.44428388464643
 21
8.179413703793523
 31
0.0
  0
LINE
  5
315
330
1F
100
AcDbEntity
  8
0
100
AcDbLine
 10
22.66337537367426
 20
6.473458511627126
 30
0.0
 11
24.56517188884326
 21
8.375255026796122
 31
0.0
  0
LINE
  5
316
330
1F
100
AcDbEntity
  8
0
100
AcDbLine
 10
22.49797881763219
 20
6.383015274390827
 30
0.0
 11
24.66018076546778
 21
8.54521722222642
 31
0.0
  0
LINE
  5
317
330
1F
100
AcDbEntity
  8
0
100
AcDbLine
 10
22.34866346535421
 20
6.308653240918623
 30
0.0
 11
24.73674787980207
 21
8.696737655366482
 31
0.0
  0
LINE
  5
318
330
1F
100
AcDbEntity
  8
0
100
AcDbLine
 10
22.20978180226541
 20
6.244724896635597
 30
0.0
 11
24.80148655310111
 21
8.836429647471302
 31
0.0
  0
LINE
  5
319
330
1F
100
AcDbEntity
  8
0
100
AcDbLine
 10
22.0792887375175
 20
6.189185150693461
 30
0.0
 11
24.85723509091573
 21
8.967131504091691
 31
0.0
  0
LINE
  5
31A
330
1F
100
AcDbEntity
  8
0
100
AcDbLine
 10
21.9564327774553
 20
6.141282509437035
 30
0.0
 11
24.90556861003811
 21
9.090418342019847
 31
0.0
  0
LINE
  5
31B
330
1F
100
AcDbEntity
  8
0
100
AcDbLine
 10
21.83993049814645
 20
6.099733548933963
 30
0.0
 11
24.94847235001694
 21
9.208275400804444
 31
0.0
  0
LINE
  5
31C
330
1F
100
AcDbEntity
  8
0
100
AcDbLine
 10
21.7286965637346
 20
6.063452933327883
 30
0.0
 11
24.98650175310402
 21
9.321258122697298
 31
0.0
  0
LINE
  5
31D
330
1F
100
AcDbEntity
  8
0
100
AcDbLine
 10
21.6215023290697
 20
6.031212017468755
 30
0.0
 11
25.01901474036282
 21
9.42872442876188
 31
0.0
  0
LINE
  5
31E
330
1F
100
AcDbEntity
  8
0
100
AcDbLine
 10
21.51769079864771
 20
6.002353805852541
 30
0.0
 11
22.99019360238282
 21
7.474856609587647
 31
0.0
  0
LINE
  5
31F
330
1F
100
AcDbEntity
  8
0
100
AcDbLine
 10
23.46607032464696
 20
7.950733331851793
 30
0.0
 11
25.04712776403529
 21
9.53179077124012
 31
0.0
  0
LINE
  5
320
330
1F
100
AcDbEntity
  8
0
100
AcDbLine
 10
21.41703761792154
 20
5.976653943932146
 30
0.0
 11
22.6365149511036
 21
7.196131277114204
 31
0.0
  0
LINE
  5
321
330
1F
100
AcDbEntity
  8
0
100
AcDbLine
 10
23.74641774625638
 20
8.306034072266987
 30
0.0
 11
25.07214841035884
 21
9.631764736369444
 31
0.0
  0
LINE
  5
322
330
1F
100
AcDbEntity
  8
0
100
AcDbLine
 10
21.31931602968462
 20
5.953885674500997
 30
0.0
 11
22.41203653190022
 21
7.046606176716592
 31
0.0
  0
LINE
  5
323
330
1F
100
AcDbEntity
  8
0
100
AcDbLine
 10
23.89113645491298
 20
8.52570609972936
 30
0.0
 11
25.0947823975518
 21
9.729352042368172
 31
0.0
  0
LINE
  5
324
330
1F
100
AcDbEntity
  8
0
100
AcDbLine
 10
21.22440583219985
 20
5.933928795821997
 30
0.0
 11
22.23151794438827
 21
6.941040908010424
 31
0.0
  0
LINE
  5
325
330
1F
100
AcDbEntity
  8
0
100
AcDbLine
 10
23.99865797335543
 20
8.70818093697758
 30
0.0
 11
25.11474761579333
 21
9.824270579415483
 31
0.0
  0
LINE
  5
326
330
1F
100
AcDbEntity
  8
0
100
AcDbLine
 10
21.13152453769948
 20
5.916000820127404
 30
0.0
 11
22.07508715048059
 21
6.859563432908517
 31
0.0
  0
LINE
  5
327
330
1F
100
AcDbEntity
  8
0
100
AcDbLine
 10
24.08136996575669
 20
8.865846248184617
 30
0.0
 11
25.13202743340057
 21
9.916503715828492
 31
0.0
  0
LINE
  5
328
330
1F
100
AcDbEntity
  8
0
100
AcDbLine
 10
21.04053138866633
 20
5.899960989900029
 30
0.0
 11
21.93214645215829
 21
6.791576053391991
 31
0.0
  0
LINE
  5
329
330
1F
100
AcDbEntity
  8
0
100
AcDbLine
 10
24.14882318789057
 20
9.008252789124265
 30
0.0
 11
25.14710200565561
 21
10.00653160688931
 31
0.0
  0
LINE
  5
32A
330
1F
100
AcDbEntity
  8
0
100
AcDbLine
 10
20.95127051778246
 20
5.885653437821937
 30
0.0
 11
21.80040516340028
 21
6.734788083439752
 31
0.0
  0
LINE
  5
32B
330
1F
100
AcDbEntity
  8
0
100
AcDbLine
 10
24.20584449945105
 20
9.140227419490518
 30
0.0
 11
25.16038699515052
 21
10.09476991518999
 31
0.0
  0
LINE
  5
32C
330
1F
100
AcDbEntity
  8
0
100
AcDbLine
 10
20.86404916206604
 20
5.873385400911283
 30
0.0
 11
21.67838397057665
 21
6.687720209421899
 31
0.0
  0
LINE
  5
32D
330
1F
100
AcDbEntity
  8
0
100
AcDbLine
 10
24.25348094801935
 20
9.262817186864591
 30
0.0
 11
25.17217428537931
 21
10.18151052422455
 31
0.0
  0
LINE
  5
32E
330
1F
100
AcDbEntity
  8
0
100
AcDbLine
 10
20.77851406227175
 20
5.862803619922765
 30
0.0
 11
21.56197231820275
 21
6.646261875853769
 31
0.0
  0
LINE
  5
32F
330
1F
100
AcDbEntity
  8
0
100
AcDbLine
 10
24.29512759332794
 20
9.379417150978957
 30
0.0
 11
25.18225141539554
 21
10.26654097304656
 31
0.0
  0
LINE
  5
330
330
1F
100
AcDbEntity
  8
0
100
AcDbLine
 10
20.69465547994206
 20
5.853898356398851
 30
0.0
 11
21.45023128536527
 21
6.609474161822066
 31
0.0
  0
LINE
  5
331
330
1F
100
AcDbEntity
  8
0
100
AcDbLine
 10
24.33154444832822
 20
9.490787324785007
 30
0.0
 11
25.19050167721469
 21
10.34974455367149
 31
0.0
  0
LINE
  5
332
330
1F
100
AcDbEntity
  8
0
100
AcDbLine
 10
20.61224909398251
 20
5.846445289245072
 30
0.0
 11
21.34369071079521
 21
6.577886906057778
 31
0.0
  0
LINE
  5
333
330
1F
100
AcDbEntity
  8
0
100
AcDbLine
 10
24.36184626921691
 20
9.596042464479478
 30
0.0
 11
25.19694898350542
 21
10.43114517876799
 31
0.0
  0
LINE
  5
334
330
1F
100
AcDbEntity
  8
0
100
AcDbLine
 10
20.53119472597615
 20
5.840344240044488
 30
0.0
 11
21.24177581583878
 21
6.550925329907118
 31
0.0
  0
LINE
  5
335
330
1F
100
AcDbEntity
  8
0
100
AcDbLine
 10
24.38782562281872
 20
9.696975136887056
 30
0.0
 11
25.20176267812631
 21
10.51091219219465
 31
0.0
  0
LINE
  5
336
330
1F
100
AcDbEntity
  8
0
100
AcDbLine
 10
20.45144206597292
 20
5.835544898847037
 30
0.0
 11
21.14345441650961
 21
6.527557249383719
 31
0.0
  0
LINE
  5
337
330
1F
100
AcDbEntity
  8
0
100
AcDbLine
 10
24.41144287125844
 20
9.79554570413255
 30
0.0
 11
25.20523436410792
 21
10.58933719698203
 31
0.0
  0
LINE
  5
338
330
1F
100
AcDbEntity
  8
0
100
AcDbLine
 10
20.37293384293313
 20
5.83198999461302
 30
0.0
 11
21.04817690050876
 21
6.507233052188644
 31
0.0
  0
LINE
  5
339
330
1F
100
AcDbEntity
  8
0
100
AcDbLine
 10
24.43281484233898
 20
9.891870994018866
 30
0.0
 11
25.20761664029413
 21
10.66667279197401
 31
0.0
  0
LINE
  5
33A
330
1F
100
AcDbEntity
  8
0
100
AcDbLine
 10
20.29552558934819
 20
5.82953505983385
 30
0.0
 11
20.95586639965593
 21
6.489875870141587
 31
0.0
  0
LINE
  5
33B
330
1F
100
AcDbEntity
  8
0
100
AcDbLine
 10
24.45095860969661
 20
9.984968080182274
 30
0.0
 11
25.20927085492122
 21
10.74328032540688
 31
0.0
  0
LINE
  5
33C
330
1F
100
AcDbEntity
  8
0
100
AcDbLine
 10
20.21889654849556
 20
5.827859337786993
 30
0.0
 11
20.86597927799295
 21
6.474942067284386
 31
0.0
  0
LINE
  5
33D
330
1F
100
AcDbEntity
  8
0
100
AcDbLine
 10
24.46589382710182
 20
10.07485661639325
 30
0.0
 11
25.21055303622252
 21
10.81951582551396
 31
0.0
  0
LINE
  5
33E
330
1F
100
AcDbEntity
  8
0
100
AcDbLine
 10
20.14270567062528
 20
5.826621778722488
 30
0.0
 11
20.77804548770994
 21
6.461961595807144
 31
0.0
  0
LINE
  5
33F
330
1F
100
AcDbEntity
  8
0
100
AcDbLine
 10
24.47861279807166
 20
10.16252890616886
 30
0.0
 11
25.20953729653797
 21
10.89345340463517
 31
0.0
  0
LINE
  5
340
330
1F
100
AcDbEntity
  8
0
100
AcDbLine
 10
20.068062360082
 20
5.826931786984981
 30
0.0
 11
20.6919522614654
 21
6.45082168836838
 31
0.0
  0
LINE
  5
341
330
1F
100
AcDbEntity
  8
0
100
AcDbLine
 10
24.48970076280343
 20
10.24857018970641
 30
0.0
 11
25.20805995520282
 21
10.9669293821058
 31
0.0
  0
LINE
  5
342
330
1F
100
AcDbEntity
  8
0
100
AcDbLine
 10
19.99442371669227
 20
5.828246462401021
 30
0.0
 11
20.60748992504382
 21
6.441312670752574
 31
0.0
  0
LINE
  5
343
330
1F
100
AcDbEntity
  8
0
100
AcDbLine
 10
24.49924338853615
 20
10.33306613424491
 30
0.0
 11
25.20602798282719
 21
11.03985072853594
 31
0.0
  0
LINE
  5
344
330
1F
100
AcDbEntity
  8
0
100
AcDbLine
 10
19.92127499417473
 20
5.830051058689258
 30
0.0
 11
20.52470224539259
 21
6.433478309907118
 31
0.0
  0
LINE
  5
345
330
1F
100
AcDbEntity
  8
0
100
AcDbLine
 10
24.50711288774605
 20
10.41588895226058
 30
0.0
 11
25.20317997782013
 21
11.11195604233465
 31
0.0
  0
LINE
  5
346
330
1F
100
AcDbEntity
  8
0
100
AcDbLine
 10
19.84889129578187
 20
5.832620679102174
 30
0.0
 11
20.44364349485244
 21
6.427372878172739
 31
0.0
  0
LINE
  5
347
330
1F
100
AcDbEntity
  8
0
100
AcDbLine
 10
24.51322052294683
 20
10.49694990626713
 30
0.0
 11
25.19936147578467
 21
11.18309085910497
 31
0.0
  0
LINE
  5
348
330
1F
100
AcDbEntity
  8
0
100
AcDbLine
 10
19.77745749394015
 20
5.836140196066231
 30
0.0
 11
20.36428548653866
 21
6.422968188664738
 31
0.0
  0
LINE
  5
349
330
1F
100
AcDbEntity
  8
0
100
AcDbLine
 10
24.51761426281868
 20
10.57629696494476
 30
0.0
 11
25.19452032833072
 21
11.25320303045679
 31
0.0
  0
LINE
  5
34A
330
1F
100
AcDbEntity
  8
0
100
AcDbLine
 10
19.70696573281984
 20
5.840601753751691
 30
0.0
 11
20.28654479992964
 21
6.420180820861487
 31
0.0
  0
LINE
  5
34B
330
1F
100
AcDbEntity
  8
0
100
AcDbLine
 10
21.54547418681565
 20
7.679110207747501
 30
0.0
 11
22.10714422644265
 21
8.240780247374502
 31
0.0
  0
LINE
  5
34C
330
1F
100
AcDbEntity
  8
0
100
AcDbLine
 10
24.52039455777125
 20
10.6540305787031
 30
0.0
 11
25.1886187486519
 21
11.32225476958375
 31
0.0
  0
LINE
  5
34D
330
1F
100
AcDbEntity
  8
0
100
AcDbLine
 10
19.63737520651379
 20
5.84596454625142
 30
0.0
 11
20.21000562422462
 21
6.418594963962239
 31
0.0
  0
LINE
  5
34E
330
1F
100
AcDbEntity
  8
0
100
AcDbLine
 10
21.35999526587523
 20
7.568584605612853
 30
0.0
 11
22.22229296464588
 21
8.430882304383505
 31
0.0
  0
LINE
  5
34F
330
1F
100
AcDbEntity
  8
0
100
AcDbLine
 10
24.52198011989687
 20
10.73056945963449
 30
0.0
 11
25.18163201488326
 21
11.39022135462088
 31
0.0
  0
LINE
  5
350
330
1F
100
AcDbEntity
  8
0
100
AcDbLine
 10
19.56873308787781
 20
5.852275746421207
 30
0.0
 11
20.13413347369312
 21
6.417676132236517
 31
0.0
  0
LINE
  5
351
330
1F
100
AcDbEntity
  8
0
100
AcDbLine
 10
21.21378395373069
 20
7.497326612274085
 30
0.0
 11
22.29213182407174
 21
8.575674482615138
 31
0.0
  0
LINE
  5
352
330
1F
100
AcDbEntity
  8
0
100
AcDbLine
 10
24.5229022764599
 20
10.8064449350033
 30
0.0
 11
25.17372197465578
 21
11.45726463319917
 31
0.0
  0
LINE
  5
353
330
1F
100
AcDbEntity
  8
0
100
AcDbLine
 10
19.50086266465856
 20
5.859358642007733
 30
0.0
 11
20.06032709952321
 21
6.418823076872382
 31
0.0
  0
LINE
  5
354
330
1F
100
AcDbEntity
  8
0
100
AcDbLine
 10
21.08713882837642
 20
7.445634805725589
 30
0.0
 11
22.33996587637913
 21
8.698461853728297
 31
0.0
  0
LINE
  5
355
330
1F
100
AcDbEntity
  8
0
100
AcDbLine
 10
24.5225058488959
 20
10.88100182624507
 30
0.0
 11
25.16505853885504
 21
11.5235545162042
 31
0.0
  0
LINE
  5
356
330
1F
100
AcDbEntity
  8
0
100
AcDbLine
 10
19.43384267097757
 20
5.867291967132516
 30
0.0
 11
19.98736115989079
 21
6.420810456045731
 31
0.0
  0
LINE
  5
357
330
1F
100
AcDbEntity
  8
0
100
AcDbLine
 10
20.97202001523546
 20
7.405469311390402
 30
0.0
 11
22.37492718909057
 21
8.808376485245509
 31
0.0
  0
LINE
  5
358
330
1F
100
AcDbEntity
  8
0
100
AcDbLine
 10
24.52139292236876
 20
10.95484221852371
 30
0.0
 11
25.15562465351579
 21
11.58907394967073
 31
0.0
  0
LINE
  5
359
330
1F
100
AcDbEntity
  8
0
100
AcDbLine
 10
19.36767703676873
 20
5.876079651729451
 30
0.0
 11
19.91480902978323
 21
6.423211644743946
 31
0.0
  0
LINE
  5
35A
330
1F
100
AcDbEntity
  8
0
100
AcDbLine
 10
20.86477654261714
 20
7.373179157577854
 30
0.0
 11
22.40115221141653
 21
8.909554826377244
 31
0.0
  0
LINE
  5
35B
330
1F
100
AcDbEntity
  8
0
100
AcDbLine
 10
24.51947247772583
 20
11.02787509268654
 30
0.0
 11
25.14560469784399
 21
11.6540073128047
 31
0.0
  0
LINE
  5
35C
330
1F
100
AcDbEntity
  8
0
100
AcDbLine
 10
19.30235279986869
 20
5.88570873363518
 30
0.0
 11
19.84295107835353
 21
6.426307012120018
 31
0.0
  0
LINE
  5
35D
330
1F
100
AcDbEntity
  8
0
100
AcDbLine
 10
20.76421130179511
 20
7.347567235561606
 30
0.0
 11
22.42154770049081
 21
9.004903634257303
 31
0.0
  0
LINE
  5
35E
330
1F
100
AcDbEntity
  8
0
100
AcDbLine
 10
24.51640668814894
 20
11.09976262191543
 30
0.0
 11
25.13490584107042
 21
11.71826177483691
 31
0.0
  0
LINE
  5
35F
330
1F
100
AcDbEntity
  8
0
100
AcDbLine
 10
19.23781006608867
 20
5.896119318660939
 30
0.0
 11
19.7719180025247
 21
6.430227255096969
 31
0.0
  0
LINE
  5
360
330
1F
100
AcDbEntity
  8
0
100
AcDbLine
 10
20.66892802567714
 20
7.327237278249408
 30
0.0
 11
22.43725509920333
 21
9.095564351775593
 31
0.0
  0
LINE
  5
361
330
1F
100
AcDbEntity
  8
0
100
AcDbLine
 10
24.51212811341876
 20
11.17043736599102
 30
0.0
 11
25.12345591625778
 21
11.78176516883005
 31
0.0
  0
LINE
  5
362
330
1F
100
AcDbEntity
  8
0
100
AcDbLine
 10
19.1739870148784
 20
5.907249586256442
 30
0.0
 11
19.70202362268066
 21
6.435286194058698
 31
0.0
  0
LINE
  5
363
330
1F
100
AcDbEntity
  8
0
100
AcDbLine
 10
20.57746827885252
 20
7.310730850230555
 30
0.0
 11
22.44841272262843
 21
9.181675294006464
 31
0.0
  0
LINE
  5
364
330
1F
100
AcDbEntity
  8
0
100
AcDbLine
 10
24.50673064576403
 20
11.23999321714207
 30
0.0
 11
25.11120288453187
 21
11.84446545590991
 31
0.0
  0
LINE
  5
365
330
1F
100
AcDbEntity
  8
0
100
AcDbLine
 10
19.11078421927965
 20
5.91900010946346
 30
0.0
 11
19.63321874196815
 21
6.441434632151958
 31
0.0
  0
LINE
  5
366
330
1F
100
AcDbEntity
  8
0
100
AcDbLine
 10
20.48892464788031
 20
7.297140538064122
 30
0.0
 11
22.4549829787684
 21
9.263198868952212
 31
0.0
  0
LINE
  5
367
330
1F
100
AcDbEntity
  8
0
100
AcDbLine
 10
24.50022598505438
 20
11.30844187523819
 30
0.0
 11
25.0981615828152
 21
11.90637747299901
 31
0.0
  0
LINE
  5
368
330
1F
100
AcDbEntity
  8
0
100
AcDbLine
 10
19.04815493707261
 20
5.931324146062197
 30
0.0
 11
19.56575048181268
 21
6.448919690802268
 31
0.0
  0
LINE
  5
369
330
1F
100
AcDbEntity
  8
0
100
AcDbLine
 10
20.4028560036607
 20
7.286025212650287
 30
0.0
 11
22.4583959949591
 21
9.34156520394869
 31
0.0
  0
LINE
  5
36A
330
1F
100
AcDbEntity
  8
0
100
AcDbLine
 10
24.49288822264358
 20
11.37605743163316
 30
0.0
 11
25.08441679120783
 21
11.96758600019741
 31
0.0
  0
LINE
  5
36B
330
1F
100
AcDbEntity
  8
0
100
AcDbLine
 10
18.98614613648671
 20
5.944268664282074
 30
0.0
 11
19.4992840102112
 21
6.457406538006561
 31
0.0
  0
LINE
  5
36C
330
1F
100
AcDbEntity
  8
0
100
AcDbLine
 10
20.3191980315132
 20
7.277320559308555
 30
0.0
 11
22.46019368214339
 21
9.418316209938748
 31
0.0
  0
LINE
  5
36D
330
1F
100
AcDbEntity
  8
0
100
AcDbLine
 10
24.48472218897594
 20
11.4428447167713
 30
0.0
 11
25.07005725151432
 21
12.02817977930968
 31
0.0
  0
LINE
  5
36E
330
1F
100
AcDbEntity
  8
0
100
AcDbLine
 10
18.92482087301983
 20
5.957896719620962
 30
0.0
 11
19.43389820041525
 21
6.466974047016381
 31
0.0
  0
LINE
  5
36F
330
1F
100
AcDbEntity
  8
0
100
AcDbLine
 10
20.23799047621303
 20
7.271066322814161
 30
0.0
 11
22.45821849544507
 21
9.491294342046201
 31
0.0
  0
LINE
  5
370
330
1F
100
AcDbEntity
  8
0
100
AcDbLine
 10
24.47580539882028
 20
11.50888124542141
 30
0.0
 11
25.05518392669169
 21
12.08825977329283
 31
0.0
  0
LINE
  5
371
330
1F
100
AcDbEntity
  8
0
100
AcDbLine
 10
18.86423214417009
 20
5.972261309576997
 30
0.0
 11
19.36943921533528
 21
6.477468380742182
 31
0.0
  0
LINE
  5
372
330
1F
100
AcDbEntity
  8
0
100
AcDbLine
 10
20.15888135622892
 20
7.266910521635823
 30
0.0
 11
22.45441011803997
 21
9.56243928344688
 31
0.0
  0
LINE
  5
373
330
1F
100
AcDbEntity
  8
0
100
AcDbLine
 10
24.46622457324598
 20
11.57425373865288
 30
0.0
 11
25.03971952332624
 21
12.14774868873314
 31
0.0
  0
LINE
  5
374
330
1F
100
AcDbEntity
  8
0
100
AcDbLine
 10
18.80440178062158
 20
5.987384264834259
 30
0.0
 11
19.30581642409235
 21
6.488798908305033
 31
0.0
  0
LINE
  5
375
330
1F
100
AcDbEntity
  8
0
100
AcDbLine
 10
20.08125631567045
 20
7.264238799883133
 30
0.0
 11
22.44832362236685
 21
9.63130610657953
 31
0.0
  0
LINE
  5
376
330
1F
100
AcDbEntity
  8
0
100
AcDbLine
 10
24.45573723620728
 20
11.63871972041996
 30
0.0
 11
25.02355872477595
 21
12.20654120898863
 31
0.0
  0
LINE
  5
377
330
1F
100
AcDbEntity
  8
0
100
AcDbLine
 10
18.74527985250687
 20
6.003215655525324
 30
0.0
 11
19.24313635213032
 21
6.501072155148779
 31
0.0
  0
LINE
  5
378
330
1F
100
AcDbEntity
  8
0
100
AcDbLine
 10
20.00450874375969
 20
7.262444546778146
 30
0.0
 11
22.43944344674302
 21
9.697379249761468
 31
0.0
  0
LINE
  5
379
330
1F
100
AcDbEntity
  8
0
100
AcDbLine
 10
24.44429610100985
 20
11.7022319040283
 30
0.0
 11
25.0066901744646
 21
12.26462597748305
 31
0.0
  0
LINE
  5
37A
330
1F
100
AcDbEntity
  8
0
100
AcDbLine
 10
18.68680969696538
 20
6.019698818789604
 30
0.0
 11
19.18113265659424
 21
6.514021778418469
 31
0.0
  0
LINE
  5
37B
330
1F
100
AcDbEntity
  8
0
100
AcDbLine
 10
19.92911731810204
 20
7.262006439926267
 30
0.0
 11
22.42811252834582
 21
9.761001650170048
 31
0.0
  0
LINE
  5
37C
330
1F
100
AcDbEntity
  8
0
100
AcDbLine
 10
24.43170325641014
 20
11.76459237823436
 30
0.0
 11
24.98905614161409
 21
12.32194526343832
 31
0.0
  0
LINE
  5
37D
330
1F
100
AcDbEntity
  8
0
100
AcDbLine
 10
18.62893990668276
 20
6.036782347312755
 30
0.0
 11
19.11989150069774
 21
6.527733941327742
 31
0.0
  0
LINE
  5
37E
330
1F
100
AcDbEntity
  8
0
100
AcDbLine
 10
19.8557571118263
 20
7.263599552456304
 30
0.0
 11
22.41442193292825
 21
9.822264373558244
 31
0.0
  0
LINE
  5
37F
330
1F
100
AcDbEntity
  8
0
100
AcDbLine
 10
24.41824414382533
 20
11.82608658445533
 30
0.0
 11
24.97063409919978
 21
12.37847653982978
 31
0.0
  0
LINE
  5
380
330
1F
100
AcDbEntity
  8
0
100
AcDbLine
 10
18.57164114448462
 20
6.054436903920388
 30
0.0
 11
19.05942338208956
 21
6.542219141525334
 31
0.0
  0
LINE
  5
381
330
1F
100
AcDbEntity
  8
0
100
AcDbLine
 10
19.78300878661346
 20
7.26580454604923
 30
0.0
 11
22.39864890088438
 21
9.881444660320152
 31
0.0
  0
LINE
  5
382
330
1F
100
AcDbEntity
  8
0
100
AcDbLine
 10
24.40411628604889
 20
11.88691204548466
 30
0.0
 11
24.95152123341295
 21
12.43431699284872
 31
0.0
  0
LINE
  5
383
330
1F
100
AcDbEntity
  8
0
100
AcDbLine
 10
18.51490709020175
 20
6.072656168443301
 30
0.0
 11
18.99979947394561
 21
6.557548552187162
 31
0.0
  0
LINE
  5
384
330
1F
100
AcDbEntity
  8
0
100
AcDbLine
 10
19.71127794603001
 20
7.269027024271558
 30
0.0
 11
22.38097840288772
 21
9.938727481129265
 31
0.0
  0
LINE
  5
385
330
1F
100
AcDbEntity
  8
0
100
AcDbLine
 10
24.38955706236369
 20
11.94730614060524
 30
0.0
 11
24.93186160430875
 21
12.4896106825503
 31
0.0
  0
LINE
  5
386
330
1F
100
AcDbEntity
  8
0
100
AcDbLine
 10
18.45874000959902
 20
6.091442406646343
 30
0.0
 11
18.94092835623755
 21
6.573630753284871
 31
0.0
  0
LINE
  5
387
330
1F
100
AcDbEntity
  8
0
100
AcDbLine
 10
19.64089791018807
 20
7.273600307235389
 30
0.0
 11
22.36156072385244
 21
9.994263120899761
 31
0.0
  0
LINE
  5
388
330
1F
100
AcDbEntity
  8
0
100
AcDbLine
 10
24.37455784667325
 20
12.00726024372057
 30
0.0
 11
24.91169468290431
 21
12.54439707995163
 31
0.0
  0
LINE
  5
389
330
1F
100
AcDbEntity
  8
0
100
AcDbLine
 10
18.40312862384071
 20
6.110784339693804
 30
0.0
 11
18.88280293900763
 21
6.590458654860724
 31
0.0
  0
LINE
  5
38A
330
1F
100
AcDbEntity
  8
0
100
AcDbLine
 10
19.57200034048433
 20
7.279656056337425
 30
0.0
 11
22.34047722554956
 21
10.04813294140265
 31
0.0
  0
LINE
  5
38B
330
1F
100
AcDbEntity
  8
0
100
AcDbLine
 10
24.35884721670818
 20
12.06650293256128
 30
0.0
 11
24.89106650971545
 21
12.59872222556854
 31
0.0
  0
LINE
  5
38C
330
1F
100
AcDbEntity
  8
0
100
AcDbLine
 10
18.34811939983144
 20
6.130728434490313
 30
0.0
 11
18.82541120641797
 21
6.60802024107684
 31
0.0
  0
LINE
  5
38D
330
1F
100
AcDbEntity
  8
0
100
AcDbLine
 10
19.50458446554833
 20
7.287193500207197
 30
0.0
 11
20.68563172267372
 21
8.468240757332586
 31
0.0
  0
LINE
  5
38E
330
1F
100
AcDbEntity
  8
0
100
AcDbLine
 10
21.03237520818458
 20
8.814984242843446
 30
0.0
 11
22.317760590225
 21
10.10036962488387
 31
0.0
  0
LINE
  5
38F
330
1F
100
AcDbEntity
  8
0
100
AcDbLine
 10
24.34229081278099
 20
12.12489984743985
 30
0.0
 11
24.86993650581212
 21
12.65254554047099
 31
0.0
  0
LINE
  5
390
330
1F
100
AcDbEntity
  8
0
100
AcDbLine
 10
18.29368635495642
 20
6.151248708421065
 30
0.0
 11
18.7687370839517
 21
6.626299437416336
 31
0.0
  0
LINE
  5
391
330
1F
100
AcDbEntity
  8
0
100
AcDbLine
 10
19.43863235394767
 20
7.296194707412317
 30
0.0
 11
20.53379843562578
 21
8.39136078909042
 31
0.0
  0
LINE
  5
392
330
1F
100
AcDbEntity
  8
0
100
AcDbLine
 10
21.10147333265886
 20
8.959035686123496
 30
0.0
 11
22.29362117956081
 21
10.15118353302545
 31
0.0
  0
LINE
  5
393
330
1F
100
AcDbEntity
  8
0
100
AcDbLine
 10
24.32457821633291
 20
12.18214056979755
 30
0.0
 11
24.84827647069427
 21
12.70583882415891
 31
0.0
  0
LINE
  5
394
330
1F
100
AcDbEntity
  8
0
100
AcDbLine
 10
18.23984729229535
 20
6.172362964565767
 30
0.0
 11
18.71275260103301
 21
6.645268273303423
 31
0.0
  0
LINE
  5
395
330
1F
100
AcDbEntity
  8
0
100
AcDbLine
 10
19.37405739218146
 20
7.306573064451879
 30
0.0
 11
20.41895582722712
 21
8.351471499497539
 31
0.0
  0
LINE
  5
396
330
1F
100
AcDbEntity
  8
0
100
AcDbLine
 10
21.13639684005918
 20
9.0689125123296
 30
0.0
 11
22.26815098961399
 21
10.20066666188441
 31
0.0
  0
LINE
  5
397
330
1F
100
AcDbEntity
  8
0
100
AcDbLine
 10
24.30606160287563
 20
12.23857727514604
 30
0.0
 11
24.82606366455926
 21
12.75857933682967
 31
0.0
  0
LINE
  5
398
330
1F
100
AcDbEntity
  8
0
100
AcDbLine
 10
18.18667483375993
 20
6.194143824836123
 30
0.0
 11
18.65743060023285
 21
6.664899591309041
 31
0.0
  0
LINE
  5
399
330
1F
100
AcDbEntity
  8
0
100
AcDbLine
 10
19.31082743397502
 20
7.318296425051205
 30
0.0
 11
20.3192554346026
 21
8.326724425678785
 31
0.0
  0
LINE
  5
39A
330
1F
100
AcDbEntity
  8
0
100
AcDbLine
 10
21.15610018474712
 20
9.163569175823309
 30
0.0
 11
22.24131710339456
 21
10.24878609447075
 31
0.0
  0
LINE
  5
39B
330
1F
100
AcDbEntity
  8
0
100
AcDbLine
 10
24.28685916335286
 20
12.29432815442905
 30
0.0
 11
24.80330296104445
 21
12.81077195212064
 31
0.0
  0
LINE
  5
39C
330
1F
100
AcDbEntity
  8
0
100
AcDbLine
 10
18.13414069551364
 20
6.216563005395599
 30
0.0
 11
18.60284321527444
 21
6.685265525156404
 31
0.0
  0
LINE
  5
39D
330
1F
100
AcDbEntity
  8
0
100
AcDbLine
 10
19.24872641882873
 20
7.331148728710695
 30
0.0
 11
20.22782291577197
 21
8.310245225653931
 31
0.0
  0
LINE
  5
39E
330
1F
100
AcDbEntity
  8
0
100
AcDbLine
 10
21.16610334318613
 20
9.248525653068096
 30
0.0
 11
22.21332352758161
 21
10.29574583746357
 31
0.0
  0
LINE
  5
39F
330
1F
100
AcDbEntity
  8
0
100
AcDbLine
 10
24.26718579160214
 20
12.3496081014841
 30
0.0
 11
24.78001649736603
 21
12.86243880724799
 31
0.0
  0
LINE
  5
3A0
330
1F
100
AcDbEntity
  8
0
100
AcDbLine
 10
18.08216386442367
 20
6.239539493111404
 30
0.0
 11
18.54891228317452
 21
6.706287911862261
 31
0.0
  0
LINE
  5
3A1
330
1F
100
AcDbEntity
  8
0
100
AcDbLine
 10
19.18772563961267
 20
7.345101268300406
 30
0.0
 11
20.14143174844366
 21
8.298807377131395
 31
0.0
  0
LINE
  5
3A2
330
1F
100
AcDbEntity
  8
0
100
AcDbLine
 10
21.1713932635068
 20
9.328768892194534
 30
0.0
 11
22.18402707321328
 21
10.34140270190101
 31
0.0
  0
LINE
  5
3A3
330
1F
100
AcDbEntity
  8
0
100
AcDbLine
 10
24.24711295594059
 20
12.40448858462833
 30
0.0
 11
24.75623107183997
 21
12.91360670052771
 31
0.0
  0
LINE
  5
3A4
330
1F
100
AcDbEntity
  8
0
100
AcDbLine
 10
18.03068963588623
 20
6.263018583379736
 30
0.0
 11
18.49557143751335
 21
6.727900385006858
 31
0.0
  0
LINE
  5
3A5
330
1F
100
AcDbEntity
  8
0
100
AcDbLine
 10
19.12787830012275
 20
7.360207247616261
 30
0.0
 11
20.06056538062643
 21
8.292894328119937
 31
0.0
  0
LINE
  5
3A6
330
1F
100
AcDbEntity
  8
0
100
AcDbLine
 10
21.17377486336602
 20
9.40610381085953
 30
0.0
 11
22.153458796219
 21
10.3857877437125
 31
0.0
  0
LINE
  5
3A7
330
1F
100
AcDbEntity
  8
0
100
AcDbLine
 10
24.22650461073139
 20
12.4588335582249
 30
0.0
 11
24.7319828526494
 21
12.96431180014291
 31
0.0
  0
LINE
  5
3A8
330
1F
100
AcDbEntity
  8
0
100
AcDbLine
 10
17.97966536894272
 20
6.286947635242003
 30
0.0
 11
18.44280326057136
 21
6.750085526870639
 31
0.0
  0
LINE
  5
3A9
330
1F
100
AcDbEntity
  8
0
100
AcDbLine
 10
19.06910608847472
 20
7.376388354774002
 30
0.0
 11
19.98362951112749
 21
8.290911777426775
 31
0.0
  0
LINE
  5
3AA
330
1F
100
AcDbEntity
  8
0
100
AcDbLine
 10
21.17158284353243
 20
9.47886510983172
 30
0.0
 11
22.12158584215986
 21
10.42886810845915
 31
0.0
  0
LINE
  5
3AB
330
1F
100
AcDbEntity
  8
0
100
AcDbLine
 10
24.20522720396367
 20
12.51250947026295
 30
0.0
 11
24.70723645133376
 21
13.01451871763305
 31
0.0
  0
LINE
  5
3AC
330
1F
100
AcDbEntity
  8
0
100
AcDbLine
 10
17.92908731896109
 20
6.311322904066145
 30
0.0
 11
18.39059403123743
 21
6.772829616342483
 31
0.0
  0
LINE
  5
3AD
330
1F
100
AcDbEntity
  8
0
100
AcDbLine
 10
19.01153959053881
 20
7.393775175643869
 30
0.0
 11
19.9093943274255
 21
8.291629912530556
 31
0.0
  0
LINE
  5
3AE
330
1F
100
AcDbEntity
  8
0
100
AcDbLine
 10
21.16680493671138
 20
9.549040521816433
 30
0.0
 11
22.08854442178128
 21
10.47078000688633
 31
0.0
  0
LINE
  5
3AF
330
1F
100
AcDbEntity
  8
0
100
AcDbLine
 10
24.18318422495038
 20
12.56541981005544
 30
0.0
 11
24.68200990254
 21
13.06424548764505
 31
0.0
  0
LINE
  5
3B0
330
1F
100
AcDbEntity
  8
0
100
AcDbLine
 10
17.87891382995704
 20
6.336102733867865
 30
0.0
 11
18.33893902048342
 21
6.796127924394248
 31
0.0
  0
LINE
  5
3B1
330
1F
100
AcDbEntity
  8
0
100
AcDbLine
 10
18.95541779681415
 20
7.412606700724984
 30
0.0
 11
19.83772970106545
 21
8.294918604976283
 31
0.0
  0
LINE
  5
3B2
330
1F
100
AcDbEntity
  8
0
100
AcDbLine
 10
21.15879441660908
 20
9.615983320519915
 30
0.0
 11
22.054460178497
 21
10.51164908240783
 31
0.0
  0
LINE
  5
3B3
330
1F
100
AcDbEntity
  8
0
100
AcDbLine
 10
24.16041119724473
 20
12.61760010115556
 30
0.0
 11
24.65627900857213
 21
13.11346791248296
 31
0.0
  0
LINE
  5
3B4
330
1F
100
AcDbEntity
  8
0
100
AcDbLine
 10
17.82916096852041
 20
6.361303191237015
 30
0.0
 11
18.28797923592096
 21
6.82012145863757
 31
0.0
  0
LINE
  5
3B5
330
1F
100
AcDbEntity
  8
0
100
AcDbLine
 10
18.90057913219002
 20
7.432721354906627
 30
0.0
 11
19.76956983183093
 21
8.301712054547536
 31
0.0
  0
LINE
  5
3B6
330
1F
100
AcDbEntity
  8
0
100
AcDbLine
 10
21.1478457877865
 20
9.679988010503102
 30
0.0
 11
22.01946510119197
 21
10.55160732390857
 31
0.0
  0
LINE
  5
3B7
330
1F
100
AcDbEntity
  8
0
100
AcDbLine
 10
24.13699579996311
 20
12.66913802267971
 30
0.0
 11
24.6300201552884
 21
13.162162378005
 31
0.0
  0
LINE
  5
3B8
330
1F
100
AcDbEntity
  8
0
100
AcDbLine
 10
17.77984051058231
 20
6.386936052104688
 30
0.0
 11
18.23759933491941
 21
6.844694876441783
 31
0.0
  0
LINE
  5
3B9
330
1F
100
AcDbEntity
  8
0
100
AcDbLine
 10
18.84697044798931
 20
7.454065989511692
 30
0.0
 11
19.70464080003018
 21
8.311736341552557
 31
0.0
  0
LINE
  5
3BA
330
1F
100
AcDbEntity
  8
0
100
AcDbLine
 10
21.13440144400579
 20
9.741496985528169
 30
0.0
 11
21.98378944129755
 21
10.59088498281993
 31
0.0
  0
LINE
  5
3BB
330
1F
100
AcDbEntity
  8
0
100
AcDbLine
 10
24.11304568223956
 20
12.72014122376193
 30
0.0
 11
24.60319111690572
 21
13.2102866584281
 31
0.0
  0
LINE
  5
3BC
330
1F
100
AcDbEntity
  8
0
100
AcDbLine
 10
17.73093720997396
 20
6.412986070302112
 30
0.0
 11
18.18777371162944
 21
6.869822571957595
 31
0.0
  0
LINE
  5
3BD
330
1F
100
AcDbEntity
  8
0
100
AcDbLine
 10
18.79474716538109
 20
7.476796025709244
 30
0.0
 11
19.64246122822858
 21
8.324510088556732
 31
0.0
  0
LINE
  5
3BE
330
1F
100
AcDbEntity
  8
0
100
AcDbLine
 10
21.1184494952018
 20
9.800498355529959
 30
0.0
 11
21.94769169506632
 21
10.62974055539447
 31
0.0
  0
LINE
  5
3BF
330
1F
100
AcDbEntity
  8
0
100
AcDbLine
 10
24.08863395437263
 20
12.77068281470078
 30
0.0
 11
24.57582645076251
 21
13.25787531109066
 31
0.0
  0
LINE
  5
3C0
330
1F
100
AcDbEntity
  8
0
100
AcDbLine
 10
17.68252347451301
 20
6.439525653646939
 30
0.0
 11
18.13850016816079
 21
6.895502347294715
 31
0.0
  0
LINE
  5
3C1
330
1F
100
AcDbEntity
  8
0
100
AcDbLine
 10
18.74366891111429
 20
7.500671090248215
 30
0.0
 11
19.58320970757176
 21
8.340211886705683
 31
0.0
  0
LINE
  5
3C2
330
1F
100
AcDbEntity
  8
0
100
AcDbLine
 10
21.09963904753768
 20
9.856641226671604
 30
0.0
 11
21.91055143531116
 21
10.66755361444508
 31
0.0
  0
LINE
  5
3C3
330
1F
100
AcDbEntity
  8
0
100
AcDbLine
 10
24.0637070101752
 20
12.82070918930912
 30
0.0
 11
24.54800143320403
 21
13.30500361233795
 31
0.0
  0
LINE
  5
3C4
330
1F
100
AcDbEntity
  8
0
100
AcDbLine
 10
17.63461850295166
 20
6.466574000891358
 30
0.0
 11
18.0897765000726
 21
6.921731998012298
 31
0.0
  0
LINE
  5
3C5
330
1F
100
AcDbEntity
  8
0
100
AcDbLine
 10
18.69369781044247
 20
7.525653308382164
 30
0.0
 11
19.52660748025051
 21
8.358562978190205
 31
0.0
  0
LINE
  5
3C6
330
1F
100
AcDbEntity
  8
0
100
AcDbLine
 10
21.07785487233076
 20
9.909810370270456
 30
0.0
 11
21.8714145615346
 21
10.7033700594743
 31
0.0
  0
LINE
  5
3C7
330
1F
100
AcDbEntity
  8
0
100
AcDbLine
 10
24.03819023578758
 20
12.87014573372728
 30
0.0
 11
24.51976043865207
 21
13.35171593659177
 31
0.0
  0
LINE
  5
3C8
330
1F
100
AcDbEntity
  8
0
100
AcDbLine
 10
17.58730456314682
 20
6.49421337989229
 30
0.0
 11
18.04174387953835
 21
6.948652696283821
 31
0.0
  0
LINE
  5
3C9
330
1F
100
AcDbEntity
  8
0
100
AcDbLine
 10
18.64492514615854
 20
7.551833962904011
 30
0.0
 11
19.47246111653369
 21
8.379369933279166
 31
0.0
  0
LINE
  5
3CA
330
1F
100
AcDbEntity
  8
0
100
AcDbLine
 10
21.05372696463078
 20
9.960635781376254
 30
0.0
 11
21.8306179989127
 21
10.73752681565817
 31
0.0
  0
LINE
  5
3CB
330
1F
100
AcDbEntity
  8
0
100
AcDbLine
 10
24.01201852878439
 20
12.91892734552986
 30
0.0
 11
24.49112130009294
 21
13.39803011683841
 31
0.0
  0
LINE
  5
3CC
330
1F
100
AcDbEntity
  8
0
100
AcDbLine
 10
17.54060462523621
 20
6.522466760787458
 30
0.0
 11
17.99427848645302
 21
6.976140622004268
 31
0.0
  0
LINE
  5
3CD
330
1F
100
AcDbEntity
  8
0
100
AcDbLine
 10
18.597300584169
 20
7.579162719720246
 30
0.0
 11
19.42099978883276
 21
8.402861924384002
 31
0.0
  0
LINE
  5
3CE
330
1F
100
AcDbEntity
  8
0
100
AcDbLine
 10
21.02763367002428
 20
10.00949580557552
 30
0.0
 11
21.78750516851624
 21
10.76936730406748
 31
0.0
  0
LINE
  5
3CF
330
1F
100
AcDbEntity
  8
0
100
AcDbLine
 10
23.9851908583874
 20
12.96705299393865
 30
0.0
 11
24.46213728633516
 21
13.4439994218864
 31
0.0
  0
LINE
  5
3D0
330
1F
100
AcDbEntity
  8
0
100
AcDbLine
 10
17.49449636109449
 20
6.551311815451509
 30
0.0
 11
17.94731300072548
 21
7.004128455082495
 31
0.0
  0
LINE
  5
3D1
330
1F
100
AcDbEntity
  8
0
100
AcDbLine
 10
18.55067547668889
 20
7.607490931045907
 30
0.0
 11
19.37245218466185
 21
8.429267639018867
 31
0.0
  0
LINE
  5
3D2
330
1F
100
AcDbEntity
  8
0
100
AcDbLine
 10
20.99899028424426
 20
10.05580573860128
 30
0.0
 11
21.74248313952583
 21
10.79929859388285
 31
0.0
  0
LINE
  5
3D3
330
1F
100
AcDbEntity
  8
0
100
AcDbLine
 10
23.95778040150826
 20
13.01459585586528
 30
0.0
 11
24.43276928476304
 21
13.48958473912005
 31
0.0
  0
LINE
  5
3D4
330
1F
100
AcDbEntity
  8
0
100
AcDbLine
 10
17.44891899849816
 20
6.580687771660953
 30
0.0
 11
17.900830005936
 21
7.032598779098794
 31
0.0
  0
LINE
  5
3D5
330
1F
100
AcDbEntity
  8
0
100
AcDbLine
 10
18.50529403079535
 20
7.637062803958142
 30
0.0
 11
19.32605580409775
 21
8.457824577260542
 31
0.0
  0
LINE
  5
3D6
330
1F
100
AcDbEntity
  8
0
100
AcDbLine
 10
20.96756987537115
 20
10.09933864853394
 30
0.0
 11
21.69601355023484
 21
10.82778232339763
 31
0.0
  0
LINE
  5
3D7
330
1F
100
AcDbEntity
  8
0
100
AcDbLine
 10
23.92987733029885
 20
13.06164610346164
 30
0.0
 11
24.40299400979447
 21
13.53476278295726
 31
0.0
  0
LINE
  5
3D8
330
1F
100
AcDbEntity
  8
0
100
AcDbLine
 10
17.40379948633182
 20
6.610521578300385
 30
0.0
 11
17.85485487039612
 21
7.061576962364686
 31
0.0
  0
LINE
  5
3D9
330
1F
100
AcDbEntity
  8
0
100
AcDbLine
 10
18.46116915455228
 20
7.667891246520846
 30
0.0
 11
19.28140257724455
 21
8.488124669213112
 31
0.0
  0
LINE
  5
3DA
330
1F
100
AcDbEntity
  8
0
100
AcDbLine
 10
20.93386439129151
 20
10.14058648326007
 30
0.0
 11
21.64793566624477
 21
10.85465775821334
 31
0.0
  0
LINE
  5
3DB
330
1F
100
AcDbEntity
  8
0
100
AcDbLine
 10
23.90155888651866
 20
13.10828097848722
 30
0.0
 11
24.37276014484384
 21
13.57948223681241
 31
0.0
  0
LINE
  5
3DC
330
1F
100
AcDbEntity
  8
0
100
AcDbLine
 10
17.35906653312219
 20
6.640741943896531
 30
0.0
 11
17.80946351494883
 21
7.091138925723171
 31
0.0
  0
LINE
  5
3DD
330
1F
100
AcDbEntity
  8
0
100
AcDbLine
 10
18.41837041399537
 20
7.700045824769706
 30
0.0
 11
19.23917713205522
 21
8.52085254282956
 31
0.0
  0
LINE
  5
3DE
330
1F
100
AcDbEntity
  8
0
100
AcDbLine
 10
20.89861678412406
 20
10.1802921948984
 30
0.0
 11
21.59792249252956
 21
10.8795979033039
 31
0.0
  0
LINE
  5
3DF
330
1F
100
AcDbEntity
  8
0
100
AcDbLine
 10
23.87284086014741
 20
13.15451627092175
 30
0.0
 11
24.34202897482568
 21
13.62370438560002
 31
0.0
  0
LINE
  5
3E0
330
1F
100
AcDbEntity
  8
0
100
AcDbLine
 10
17.31468593415467
 20
6.671314663734786
 30
0.0
 11
17.76449452296588
 21
7.121123252545996
 31
0.0
  0
LINE
  5
3E1
330
1F
100
AcDbEntity
  8
0
100
AcDbLine
 10
18.3769471351149
 20
7.733575864695009
 30
0.0
 11
19.19948917316915
 21
8.556117902749262
 31
0.0
  0
LINE
  5
3E2
330
1F
100
AcDbEntity
  8
0
100
AcDbLine
 10
20.86073666489149
 20
10.21736539447161
 30
0.0
 11
21.54599251829103
 21
10.90262124787114
 31
0.0
  0
LINE
  5
3E3
330
1F
100
AcDbEntity
  8
0
100
AcDbLine
 10
23.8436722798334
 20
13.20030100941351
 30
0.0
 11
24.31087312926338
 21
13.66750185884349
 31
0.0
  0
LINE
  5
3E4
330
1F
100
AcDbEntity
  8
0
100
AcDbLine
 10
17.27060458940084
 20
6.702186637786732
 30
0.0
 11
17.71990600418787
 21
7.151488052573754
 31
0.0
  0
LINE
  5
3E5
330
1F
100
AcDbEntity
  8
0
100
AcDbLine
 10
18.33670577916145
 20
7.768287827547335
 30
0.0
 11
19.16156102751835
 21
8.59314307590424
 31
0.0
  0
LINE
  5
3E6
330
1F
100
AcDbEntity
  8
0
100
AcDbLine
 10
20.82039452593801
 20
10.2519765743239
 30
0.0
 11
21.49234788480107
 21
10.92392993318696
 31
0.0
  0
LINE
  5
3E7
330
1F
100
AcDbEntity
  8
0
100
AcDbLine
 10
23.81398918882232
 20
13.24557123720821
 30
0.0
 11
24.27931973736653
 21
13.71090178575242
 31
0.0
  0
LINE
  5
3E8
330
1F
100
AcDbEntity
  8
0
100
AcDbLine
 10
17.22684505850077
 20
6.733380425692437
 30
0.0
 11
17.67581653088471
 21
7.18235189807637
 31
0.0
  0
LINE
  5
3E9
330
1F
100
AcDbEntity
  8
0
100
AcDbLine
 10
18.29730486784786
 20
7.803840235039516
 30
0.0
 11
19.12697614255672
 21
8.633511509748379
 31
0.0
  0
LINE
  5
3EA
330
1F
100
AcDbEntity
  8
0
100
AcDbLine
 10
20.77811366613654
 20
10.2846490333282
 30
0.0
 11
21.43720536632044
 21
10.9437407335121
 31
0.0
  0
LINE
  5
3EB
330
1F
100
AcDbEntity
  8
0
100
AcDbLine
 10
23.78373574639159
 20
13.29027111358325
 30
0.0
 11
24.24739593947629
 21
13.75393130666795
 31
0.0
  0
LINE
  5
3EC
330
1F
100
AcDbEntity
  8
0
100
AcDbLine
 10
17.18342345438564
 20
6.764912140383075
 30
0.0
 11
17.63217194860351
 21
7.213660634600942
 31
0.0
  0
LINE
  5
3ED
330
1F
100
AcDbEntity
  8
0
100
AcDbLine
 10
18.25833494767059
 20
7.839823633668026
 30
0.0
 11
19.09779786066722
 21
8.679286546664654
 31
0.0
  0
LINE
  5
3EE
330
1F
100
AcDbEntity
  8
0
100
AcDbLine
 10
20.73277796870224
 20
10.31426665469967
 30
0.0
 11
21.38067939306028
 21
10.96216807905772
 31
0.0
  0
LINE
  5
3EF
330
1F
100
AcDbEntity
  8
0
100
AcDbLine
 10
23.75291473011083
 20
13.33440341610827
 30
0.0
 11
24.21512479498104
 21
13.79661348097848
 31
0.0
  0
LINE
  5
3F0
330
1F
100
AcDbEntity
  8
0
100
AcDbLine
 10
17.14035578370944
 20
6.796797788512645
 30
0.0
 11
17.58898145899246
 21
7.245423463795674
 31
0.0
  0
LINE
  5
3F1
330
1F
100
AcDbEntity
  8
0
100
AcDbLine
 10
18.22165104563381
 20
7.878093050437013
 30
0.0
 11
19.07151438343045
 21
8.727956388233661
 31
0.0
  0
LINE
  5
3F2
330
1F
100
AcDbEntity
  8
0
100
AcDbLine
 10
20.68480304028026
 20
10.34124504508347
 30
0.0
 11
21.32270509980333
 21
10.97914710460654
 31
0.0
  0
LINE
  5
3F3
330
1F
100
AcDbEntity
  8
0
100
AcDbLine
 10
23.72156640847146
 20
13.37800841327467
 30
0.0
 11
24.18252505130745
 21
13.83896705611065
 31
0.0
  0
LINE
  5
3F4
330
1F
100
AcDbEntity
  8
0
100
AcDbLine
 10
17.09765983617373
 20
6.82905515978271
 30
0.0
 11
17.54625440411393
 21
7.277649727722915
 31
0.0
  0
LINE
  5
3F5
330
1F
100
AcDbEntity
  8
0
100
AcDbLine
 10
18.18580445339529
 20
7.917199777004271
 30
0.0
 11
19.0479215178161
 21
8.77931684142508
 31
0.0
  0
LINE
  5
3F6
330
1F
100
AcDbEntity
  8
0
100
AcDbLine
 10
20.63469884407393
 20
10.36609416768291
 30
0.0
 11
21.26314295109379
 21
10.99453827470277
 31
0.0
  0
LINE
  5
3F7
330
1F
100
AcDbEntity
  8
0
100
AcDbLine
 10
21.50627814154246
 20
11.23767346515144
 30
0.0
 11
22.05182842090445
 21
11.78322374451343
 31
0.0
  0
LINE
  5
3F8
330
1F
100
AcDbEntity
  8
0
100
AcDbLine
 10
23.68974153770326
 20
13.42113686131224
 30
0.0
 11
24.14957298079795
 21
13.88096830440693
 31
0.0
  0
LINE
  5
3F9
330
1F
100
AcDbEntity
  8
0
100
AcDbLine
 10
17.05541036219033
 20
6.861759004605084
 30
0.0
 11
17.50400027604077
 21
7.310348918455523
 31
0.0
  0
LINE
  5
3FA
330
1F
100
AcDbEntity
  8
0
100
AcDbLine
 10
18.15068469011691
 20
7.957033332531667
 30
0.0
 11
19.02817597632364
 21
8.8345246187384
 31
0.0
  0
LINE
  5
3FB
330
1F
100
AcDbEntity
  8
0
100
AcDbLine
 10
20.58316018130659
 20
10.38950882372134
 30
0.0
 11
21.20181967172933
 21
11.00816831414409
 31
0.0
  0
LINE
  5
3FC
330
1F
100
AcDbEntity
  8
0
100
AcDbLine
 10
21.33703810314429
 20
11.14338674555905
 30
0.0
 11
22.12686776613382
 21
11.93321640854858
 31
0.0
  0
LINE
  5
3FD
330
1F
100
AcDbEntity
  8
0
100
AcDbLine
 10
23.65748543372658
 20
13.46383407614134
 30
0.0
 11
24.11621890928929
 21
13.92256755170405
 31
0.0
  0
LINE
  5
3FE
330
1F
100
AcDbEntity
  8
0
100
AcDbLine
 10
17.0135526133894
 20
6.894854574609933
 30
0.0
 11
17.46225283878788
 21
7.343554800008412
 31
0.0
  0
LINE
  5
3FF
330
1F
100
AcDbEntity
  8
0
100
AcDbLine
 10
18.11669582878533
 20
7.997997790005861
 30
0.0
 11
19.01043816060077
 21
8.8917401218213
 31
0.0
  0
LINE
  5
400
330
1F
100
AcDbEntity
  8
0
100
AcDbLine
 10
20.52986297446754
 20
10.41116493568807
 30
0.0
 11
21.13864722023655
 21
11.01994918145707
 31
0.0
  0
LINE
  5
401
330
1F
100
AcDbEntity
  8
0
100
AcDbLine
 10
21.21573857032183
 20
11.09704053154236
 30
0.0
 11
22.17178136525823
 21
12.05308332647876
 31
0.0
  0
LINE
  5
402
330
1F
100
AcDbEntity
  8
0
100
AcDbLine
 10
23.62482910477876
 20
13.50613106599929
 30
0.0
 11
24.08250785884147
 21
13.963809820062
 31
0.0
  0
LINE
  5
403
330
1F
100
AcDbEntity
  8
0
100
AcDbLine
 10
16.97209577669889
 20
6.928351056725195
 30
0.0
 11
17.42101877430595
 21
7.377274054332255
 31
0.0
  0
LINE
  5
404
330
1F
100
AcDbEntity
  8
0
100
AcDbLine
 10
18.08405026425167
 20
8.04030554427797
 30
0.0
 11
18.99425033879409
 21
8.950505618820392
 31
0.0
  0
LINE
  5
405
330
1F
100
AcDbEntity
  8
0
100
AcDbLine
 10
20.47465280401719
 20
10.43090808404349
 30
0.0
 11
21.07388770575121
 21
11.03014298577751
 31
0.0
  0
LINE
  5
406
330
1F
100
AcDbEntity
  8
0
100
AcDbLine
 10
21.11147526242318
 20
11.06773054244948
 30
0.0
 11
22.20192777153959
 21
12.15818305156589
 31
0.0
  0
LINE
  5
407
330
1F
100
AcDbEntity
  8
0
100
AcDbLine
 10
23.59178365086706
 20
13.54803893089336
 30
0.0
 11
24.04848730351674
 21
14.00474258354305
 31
0.0
  0
LINE
  5
408
330
1F
100
AcDbEntity
  8
0
100
AcDbLine
 10
16.9309966196325
 20
6.96220521846457
 30
0.0
 11
17.38028762522858
 21
7.411496224060654
 31
0.0
  0
LINE
  5
409
330
1F
100
AcDbEntity
  8
0
100
AcDbLine
 10
18.05275066517781
 20
8.083959264009886
 30
0.0
 11
18.98036085182159
 21
9.011569450653665
 31
0.0
  0
LINE
  5
40A
330
1F
100
AcDbEntity
  8
0
100
AcDbLine
 10
20.41757099905199
 20
10.44877959788407
 30
0.0
 11
21.00783967441863
 21
11.0390482732507
 31
0.0
  0
LINE
  5
40B
330
1F
100
AcDbEntity
  8
0
100
AcDbLine
 10
21.02143281797477
 20
11.05264141680685
 30
0.0
 11
22.22380396072354
 21
12.25501255955561
 31
0.0
  0
LINE
  5
40C
330
1F
100
AcDbEntity
  8
0
100
AcDbLine
 10
23.55835739380368
 20
13.58956599263576
 30
0.0
 11
24.0140227962548
 21
14.04523139508688
 31
0.0
  0
LINE
  5
40D
330
1F
100
AcDbEntity
  8
0
100
AcDbLine
 10
16.89037355168398
 20
6.996535469321831
 30
0.0
 11
17.34003925446167
 21
7.446201172099516
 31
0.0
  0
LINE
  5
40E
330
1F
100
AcDbEntity
  8
0
100
AcDbLine
 10
18.02276477859864
 20
8.12892669623649
 30
0.0
 11
18.9684247540422
 21
9.07458667168005
 31
0.0
  0
LINE
  5
40F
330
1F
100
AcDbEntity
  8
0
100
AcDbLine
 10
20.35860690061519
 20
10.46476881825304
 30
0.0
 11
22.23952741079148
 21
12.34568932842933
 31
0.0
  0
LINE
  5
410
330
1F
100
AcDbEntity
  8
0
100
AcDbLine
 10
23.52458694471611
 20
13.63074886235396
 30
0.0
 11
23.9791705691665
 21
14.08533248680435
 31
0.0
  0
LINE
  5
411
330
1F
100
AcDbEntity
  8
0
100
AcDbLine
 10
16.8501924913804
 20
7.031307727824024
 30
0.0
 11
17.30022541022568
 21
7.481340646669302
 31
0.0
  0
LINE
  5
412
330
1F
100
AcDbEntity
  8
0
100
AcDbLine
 10
17.99407668654683
 20
8.175191922990454
 30
0.0
 11
18.95822128816384
 21
9.139336524607469
 31
0.0
  0
LINE
  5
413
330
1F
100
AcDbEntity
  8
0
100
AcDbLine
 10
20.29826613078908
 20
10.4793813672327
 30
0.0
 11
22.25003347935595
 21
12.43114871579957
 31
0.0
  0
LINE
  5
414
330
1F
100
AcDbEntity
  8
0
100
AcDbLine
 10
23.49039075455015
 20
13.67150599099377
 30
0.0
 11
23.94391343411386
 21
14.12502867055748
 31
0.0
  0
LINE
  5
415
330
1F
100
AcDbEntity
  8
0
100
AcDbLine
 10
16.8104345032806
 20
7.066503058530003
 30
0.0
 11
17.26078489002676
 21
7.516853445276159
 31
0.0
  0
LINE
  5
416
330
1F
100
AcDbEntity
  8
0
100
AcDbLine
 10
17.96655474615596
 20
8.222623301405354
 30
0.0
 11
18.94985266433461
 21
9.20592121958401
 31
0.0
  0
LINE
  5
417
330
1F
100
AcDbEntity
  8
0
100
AcDbLine
 10
20.23677840443321
 20
10.49284695968261
 30
0.0
 11
22.25613591889665
 21
12.51220447414605
 31
0.0
  0
LINE
  5
418
330
1F
100
AcDbEntity
  8
0
100
AcDbLine
 10
23.45576316994006
 20
13.71183172518946
 30
0.0
 11
23.90822482605526
 21
14.16429338130466
 31
0.0
  0
LINE
  5
419
330
1F
100
AcDbEntity
  8
0
100
AcDbLine
 10
16.77113661446793
 20
7.102158488523104
 30
0.0
 11
17.22165687457133
 21
7.552678748626506
 31
0.0
  0
LINE
  5
41A
330
1F
100
AcDbEntity
  8
0
100
AcDbLine
 10
17.94033078818281
 20
8.271352662237977
 30
0.0
 11
18.94282801223973
 21
9.273849886294897
 31
0.0
  0
LINE
  5
41B
330
1F
100
AcDbEntity
  8
0
100
AcDbLine
 10
20.17414917302979
 20
10.50517104708496
 30
0.0
 11
22.25897963290238
 21
12.59000150695755
 31
0.0
  0
LINE
  5
41C
330
1F
100
AcDbEntity
  8
0
100
AcDbLine
 10
23.42059080964907
 20
13.75161268370424
 30
0.0
 11
23.87214414259159
 21
14.20316601664675
 31
0.0
  0
LINE
  5
41D
330
1F
100
AcDbEntity
  8
0
100
AcDbLine
 10
16.7322509482939
 20
7.138226141154839
 30
0.0
 11
17.18278086580913
 21
7.588756058670078
 31
0.0
  0
LINE
  5
41E
330
1F
100
AcDbEntity
  8
0
100
AcDbLine
 10
17.9151950422334
 20
8.321170235094343
 30
0.0
 11
18.88207694064802
 21
9.288052133508964
 31
0.0
  0
LINE
  5
41F
330
1F
100
AcDbEntity
  8
0
100
AcDbLine
 10
20.11046584585167
 20
10.51644103871262
 30
0.0
 11
22.2601116563497
 21
12.66608684921064
 31
0.0
  0
LINE
  5
420
330
1F
100
AcDbEntity
  8
0
100
AcDbLine
 10
23.38487472670175
 20
13.79084991956269
 30
0.0
 11
23.83566343128079
 21
14.24163862414174
 31
0.0
  0
LINE
  5
421
330
1F
100
AcDbEntity
  8
0
100
AcDbLine
 10
16.69376963271761
 20
7.174698144384327
 30
0.0
 11
17.14409662566225
 21
7.625025137328965
 31
0.0
  0
LINE
  5
422
330
1F
100
AcDbEntity
  8
0
100
AcDbLine
 10
17.89126897322758
 20
8.372197484894292
 30
0.0
 11
18.80712362184172
 21
9.28805213350844
 31
0.0
  0
LINE
  5
423
330
1F
100
AcDbEntity
  8
0
100
AcDbLine
 10
20.04562869900515
 20
10.52655721067187
 30
0.0
 11
22.25726197663336
 21
12.73819048830008
 31
0.0
  0
LINE
  5
424
330
1F
100
AcDbEntity
  8
0
100
AcDbLine
 10
23.34861025599772
 20
13.82953876766443
 30
0.0
 11
23.79892943422059
 21
14.27985794588731
 31
0.0
  0
LINE
  5
425
330
1F
100
AcDbEntity
  8
0
100
AcDbLine
 10
16.65554704115656
 20
7.211428871629046
 30
0.0
 11
17.10554411530919
 21
7.661425945781683
 31
0.0
  0
LINE
  5
426
330
1F
100
AcDbEntity
  8
0
100
AcDbLine
 10
17.86829034542134
 20
8.424172175893831
 30
0.0
 11
18.73217030303542
 21
9.288052133507918
 31
0.0
  0
LINE
  5
427
330
1F
100
AcDbEntity
  8
0
100
AcDbLine
 10
19.97972015798742
 20
10.53560198845991
 30
0.0
 11
22.25298881206329
 21
12.80887064253578
 31
0.0
  0
LINE
  5
428
330
1F
100
AcDbEntity
  8
0
100
AcDbLine
 10
23.31187579525631
 20
13.8677576257288
 30
0.0
 11
23.76199190929956
 21
14.31787373977205
 31
0.0
  0
LINE
  5
429
330
1F
100
AcDbEntity
  8
0
100
AcDbLine
 10
16.61753789619648
 20
7.248373045474752
 30
0.0
 11
17.06706343489492
 21
7.69789858417318
 31
0.0
  0
LINE
  5
42A
330
1F
100
AcDbEntity
  8
0
100
AcDbLine
 10
17.84639743890269
 20
8.477232588180954
 30
0.0
 11
18.65721698422913
 21
9.288052133507392
 31
0.0
  0
LINE
  5
42B
330
1F
100
AcDbEntity
  8
0
100
AcDbLine
 10
19.9126525738275
 20
10.54348772310577
 30
0.0
 11
22.24629310637235
 21
12.87712825565061
 31
0.0
  0
LINE
  5
42C
330
1F
100
AcDbEntity
  8
0
100
AcDbLine
 10
23.27486323533789
 20
13.90569838461616
 30
0.0
 11
23.72495514143427
 21
14.35579029071253
 31
0.0
  0
LINE
  5
42D
330
1F
100
AcDbEntity
  8
0
100
AcDbLine
 10
16.57961901826811
 20
7.285407486352152
 30
0.0
 11
17.02987092892218
 21
7.735659397006216
 31
0.0
  0
LINE
  5
42E
330
1F
100
AcDbEntity
  8
0
100
AcDbLine
 10
17.82538174553967
 20
8.531170213623708
 30
0.0
 11
18.58226366542283
 21
9.288052133506868
 31
0.0
  0
LINE
  5
42F
330
1F
100
AcDbEntity
  8
0
100
AcDbLine
 10
19.8443935244255
 20
10.55018199250954
 30
0.0
 11
22.23694490480019
 21
12.94273337288423
 31
0.0
  0
LINE
  5
430
330
1F
100
AcDbEntity
  8
0
100
AcDbLine
 10
23.23769331654541
 20
13.94348178462945
 30
0.0
 11
23.68724403226588
 21
14.39303250034992
 31
0.0
  0
LINE
  5
431
330
1F
100
AcDbEntity
  8
0
100
AcDbLine
 10
16.54250769539752
 20
7.323249482287333
 30
0.0
 11
16.99303133733876
 21
7.773773124228571
 31
0.0
  0
LINE
  5
432
330
1F
100
AcDbEntity
  8
0
100
AcDbLine
 10
17.80558130893395
 20
8.586323095823762
 30
0.0
 11
18.50731034661653
 21
9.288052133506344
 31
0.0
  0
LINE
  5
433
330
1F
100
AcDbEntity
  8
0
100
AcDbLine
 10
19.77490267386325
 20
10.55564446075306
 30
0.0
 11
22.22494138864987
 21
13.00568317553969
 31
0.0
  0
LINE
  5
434
330
1F
100
AcDbEntity
  8
0
100
AcDbLine
 10
23.19970451229887
 20
13.98044629918868
 30
0.0
 11
23.64930024703149
 21
14.4300420339213
 31
0.0
  0
LINE
  5
435
330
1F
100
AcDbEntity
  8
0
100
AcDbLine
 10
16.50554974104744
 20
7.361244846743027
 30
0.0
 11
16.95645268436038
 21
7.812147790055962
 31
0.0
  0
LINE
  5
436
330
1F
100
AcDbEntity
  8
0
100
AcDbLine
 10
17.7869480901067
 20
8.642643195802293
 30
0.0
 11
18.43235702781024
 21
9.288052133505822
 31
0.0
  0
LINE
  5
437
330
1F
100
AcDbEntity
  8
0
100
AcDbLine
 10
19.70430185725499
 20
10.55999696295057
 30
0.0
 11
22.21062491700693
 21
13.06632002270252
 31
0.0
  0
LINE
  5
438
330
1F
100
AcDbEntity
  8
0
100
AcDbLine
 10
23.16156281814644
 20
14.01725792384203
 30
0.0
 11
23.61117563776256
 21
14.46687074345814
 31
0.0
  0
LINE
  5
439
330
1F
100
AcDbEntity
  8
0
100
AcDbLine
 10
16.4687686352757
 20
7.399417059777064
 30
0.0
 11
16.9202694878498
 21
7.850917912351157
 31
0.0
  0
LINE
  5
43A
330
1F
100
AcDbEntity
  8
0
100
AcDbLine
 10
17.76982422496552
 20
8.70047264946688
 30
0.0
 11
18.35740370900394
 21
9.288052133505298
 31
0.0
  0
LINE
  5
43B
330
1F
100
AcDbEntity
  8
0
100
AcDbLine
 10
19.63269217737471
 20
10.56334060187607
 30
0.0
 11
22.19428317225613
 21
13.12493159675749
 31
0.0
  0
LINE
  5
43C
330
1F
100
AcDbEntity
  8
0
100
AcDbLine
 10
23.12320791576711
 20
14.05385634026847
 30
0.0
 11
23.57272853408178
 21
14.50337695858313
 31
0.0
  0
LINE
  5
43D
330
1F
100
AcDbEntity
  8
0
100
AcDbLine
 10
16.43225672920222
 20
7.437858472509354
 30
0.0
 11
16.88458297947031
 21
7.890184722777447
 31
0.0
  0
LINE
  5
43E
330
1F
100
AcDbEntity
  8
0
100
AcDbLine
 10
17.75394622852033
 20
8.759547971827464
 30
0.0
 11
18.28245039019764
 21
9.288052133504772
 31
0.0
  0
LINE
  5
43F
330
1F
100
AcDbEntity
  8
0
100
AcDbLine
 10
19.56019445807812
 20
10.56579620138525
 30
0.0
 11
22.17615886378139
 21
13.18176060708852
 31
0.0
  0
LINE
  5
440
330
1F
100
AcDbEntity
  8
0
100
AcDbLine
 10
23.08452473254277
 20
14.0901264758499
 30
0.0
 11
23.53391562942522
 21
14.53951737273236
 31
0.0
  0
LINE
  5
441
330
1F
100
AcDbEntity
  8
0
100
AcDbLine
 10
16.39608662588135
 20
7.476641687994255
 30
0.0
 11
16.8494449099809
 21
7.929999972093802
 31
0.0
  0
LINE
  5
442
330
1F
100
AcDbEntity
  8
0
100
AcDbLine
 10
17.739296800657
 20
8.819851862769907
 30
0.0
 11
18.20749707139134
 21
9.288052133504252
 31
0.0
  0
LINE
  5
443
330
1F
100
AcDbEntity
  8
0
100
AcDbLine
 10
19.48700755486913
 20
10.56756261698204
 30
0.0
 11
22.15641953660929
 21
13.23697459872219
 31
0.0
  0
LINE
  5
444
330
1F
100
AcDbEntity
  8
0
100
AcDbLine
 10
23.04543949334101
 20
14.12599455545391
 30
0.0
 11
23.49456847882823
 21
14.57512354094114
 31
0.0
  0
LINE
  5
445
330
1F
100
AcDbEntity
  8
0
100
AcDbLine
 10
16.36036987999535
 20
7.515878260914029
 30
0.0
 11
16.81480993676707
 21
7.970318317685745
 31
0.0
  0
LINE
  5
446
330
1F
100
AcDbEntity
  8
0
100
AcDbLine
 10
17.72559538118666
 20
8.88110376210534
 30
0.0
 11
18.13254375258505
 21
9.288052133503728
 31
0.0
  0
LINE
  5
447
330
1F
100
AcDbEntity
  8
0
100
AcDbLine
 10
19.41334144293606
 20
10.56884982385474
 30
0.0
 11
20.57240469939612
 21
11.72791308031481
 31
0.0
  0
LINE
  5
448
330
1F
100
AcDbEntity
  8
0
100
AcDbLine
 10
20.9216204656992
 20
12.07712884661788
 30
0.0
 11
22.13510022395278
 21
13.29060860487146
 31
0.0
  0
LINE
  5
449
330
1F
100
AcDbEntity
  8
0
100
AcDbLine
 10
23.00586847949194
 20
14.16137686041062
 30
0.0
 11
23.45478628696221
 21
14.61029466788088
 31
0.0
  0
LINE
  5
44A
330
1F
100
AcDbEntity
  8
0
100
AcDbLine
 10
16.32506343313396
 20
7.555525132858413
 30
0.0
 11
16.78060509814297
 21
8.011066797867421
 31
0.0
  0
LINE
  5
44B
330
1F
100
AcDbEntity
  8
0
100
AcDbLine
 10
17.71292072639924
 20
8.943382426123696
 30
0.0
 11
18.05759043377875
 21
9.288052133503202
 31
0.0
  0
LINE
  5
44C
330
1F
100
AcDbEntity
  8
0
100
AcDbLine
 10
19.34012315853267
 20
10.57058485825712
 30
0.0
 11
20.45636434322385
 21
11.68682604294831
 31
0.0
  0
LINE
  5
44D
330
1F
100
AcDbEntity
  8
0
100
AcDbLine
 10
20.96794586095378
 20
12.19840756067823
 30
0.0
 11
22.11221011160621
 21
13.34267181133066
 31
0.0
  0
LINE
  5
44E
330
1F
100
AcDbEntity
  8
0
100
AcDbLine
 10
22.96582994685638
 20
14.19629164658083
 30
0.0
 11
23.41453135094663
 21
14.64499305067108
 31
0.0
  0
LINE
  5
44F
330
1F
100
AcDbEntity
  8
0
100
AcDbLine
 10
16.29023815081187
 20
7.595653169342097
 30
0.0
 11
16.74684078630648
 21
8.05225580483671
 31
0.0
  0
LINE
  5
450
330
1F
100
AcDbEntity
  8
0
100
AcDbLine
 10
17.70138898620456
 20
9.006804004734787
 30
0.0
 11
17.98263711497246
 21
9.288052133502681
 31
0.0
  0
LINE
  5
451
330
1F
100
AcDbEntity
  8
0
100
AcDbLine
 10
19.34012315853456
 20
10.64553817706478
 30
0.0
 11
20.35541661524978
 21
11.66083163378
 31
0.0
  0
LINE
  5
452
330
1F
100
AcDbEntity
  8
0
100
AcDbLine
 10
20.99347824043697
 20
12.29889325896719
 30
0.0
 11
22.08768962630924
 21
13.39310464483947
 31
0.0
  0
LINE
  5
453
330
1F
100
AcDbEntity
  8
0
100
AcDbLine
 10
22.92534039135669
 20
14.23075540988692
 30
0.0
 11
23.37389787061587
 21
14.67931288914609
 31
0.0
  0
LINE
  5
454
330
1F
100
AcDbEntity
  8
0
100
AcDbLine
 10
16.25581584065458
 20
7.636184177990581
 30
0.0
 11
16.71344101808439
 21
8.093809355420387
 31
0.0
  0
LINE
  5
455
330
1F
100
AcDbEntity
  8
0
100
AcDbLine
 10
17.69117643808219
 20
9.071544775418193
 30
0.0
 11
17.90768379616615
 21
9.288052133502156
 31
0.0
  0
LINE
  5
456
330
1F
100
AcDbEntity
  8
0
100
AcDbLine
 10
19.34012315853645
 20
10.72049149587245
 30
0.0
 11
20.26218209421496
 21
11.64255043155096
 31
0.0
  0
LINE
  5
457
330
1F
100
AcDbEntity
  8
0
100
AcDbLine
 10
21.00621990174222
 20
12.38658823907822
 30
0.0
 11
22.06184043642124
 21
13.44220877375724
 31
0.0
  0
LINE
  5
458
330
1F
100
AcDbEntity
  8
0
100
AcDbLine
 10
22.88432027120441
 20
14.26468860854041
 30
0.0
 11
23.33286107598671
 21
14.71322941332271
 31
0.0
  0
LINE
  5
459
330
1F
100
AcDbEntity
  8
0
100
AcDbLine
 10
16.22192112258225
 20
7.677242778724023
 30
0.0
 11
16.68047073651433
 21
8.135792392656107
 31
0.0
  0
LINE
  5
45A
330
1F
100
AcDbEntity
  8
0
100
AcDbLine
 10
17.68231586394516
 20
9.137637520086932
 30
0.0
 11
17.83273047735986
 21
9.288052133501635
 31
0.0
  0
LINE
  5
45B
330
1F
100
AcDbEntity
  8
0
100
AcDbLine
 10
19.34012315853834
 20
10.79544481468011
 30
0.0
 11
20.17385796104823
 21
11.62917961719001
 31
0.0
  0
LINE
  5
45C
330
1F
100
AcDbEntity
  8
0
100
AcDbLine
 10
21.01185933264215
 20
12.46718098878392
 30
0.0
 11
22.0347872490734
 21
13.49010890521517
 31
0.0
  0
LINE
  5
45D
330
1F
100
AcDbEntity
  8
0
100
AcDbLine
 10
22.84289394667151
 20
14.29821560281329
 30
0.0
 11
23.29153252674034
 21
14.74685418288211
 31
0.0
  0
LINE
  5
45E
330
1F
100
AcDbEntity
  8
0
100
AcDbLine
 10
16.18837669350602
 20
7.718651668453567
 30
0.0
 11
16.64796513214164
 21
8.17824010708919
 31
0.0
  0
LINE
  5
45F
330
1F
100
AcDbEntity
  8
0
100
AcDbLine
 10
17.6744890581518
 20
9.204764033099343
 30
0.0
 11
17.75777715855356
 21
9.28805213350111
 31
0.0
  0
LINE
  5
460
330
1F
100
AcDbEntity
  8
0
100
AcDbLine
 10
19.34012315854023
 20
10.87039813348777
 30
0.0
 11
20.0886125431087
 21
11.61888751805624
 31
0.0
  0
LINE
  5
461
330
1F
100
AcDbEntity
  8
0
100
AcDbLine
 10
21.01443787330318
 20
12.54471284825073
 30
0.0
 11
22.00642175902987
 21
13.53669673397741
 31
0.0
  0
LINE
  5
462
330
1F
100
AcDbEntity
  8
0
100
AcDbLine
 10
22.80102636874506
 20
14.3313013436926
 30
0.0
 11
23.24980377442735
 21
14.78007874937489
 31
0.0
  0
LINE
  5
463
330
1F
100
AcDbEntity
  8
0
100
AcDbLine
 10
16.15523178549804
 20
7.760460079251359
 30
0.0
 11
16.61595530495953
 21
8.221183598712855
 31
0.0
  0
LINE
  5
464
330
1F
100
AcDbEntity
  8
0
100
AcDbLine
 10
17.66725128231041
 20
9.272479576063734
 30
0.0
 11
17.68282383974726
 21
9.288052133500585
 31
0.0
  0
LINE
  5
465
330
1F
100
AcDbEntity
  8
0
100
AcDbLine
 10
19.34012315854212
 20
10.94535145229544
 30
0.0
 11
20.00552933302844
 21
11.61075762678177
 31
0.0
  0
LINE
  5
466
330
1F
100
AcDbEntity
  8
0
100
AcDbLine
 10
21.01073170730467
 20
12.61596000105799
 30
0.0
 11
21.97688251568599
 21
13.58211080943931
 31
0.0
  0
LINE
  5
467
330
1F
100
AcDbEntity
  8
0
100
AcDbLine
 10
22.75873664930478
 20
14.3639649430581
 30
0.0
 11
23.20768927054627
 21
14.81291756429959
 31
0.0
  0
LINE
  5
468
330
1F
100
AcDbEntity
  8
0
100
AcDbLine
 10
16.12251840833015
 20
7.802700020889243
 30
0.0
 11
16.58445270171467
 21
8.264634314273772
 31
0.0
  0
LINE
  5
469
330
1F
100
AcDbEntity
  8
0
100
AcDbLine
 10
19.34012315854401
 20
11.0203047711031
 30
0.0
 11
19.92430265177153
 21
11.60448426433063
 31
0.0
  0
LINE
  5
46A
330
1F
100
AcDbEntity
  8
0
100
AcDbLine
 10
21.00516105903939
 20
12.68534267159849
 30
0.0
 11
21.94600947801494
 21
13.62619109057403
 31
0.0
  0
LINE
  5
46B
330
1F
100
AcDbEntity
  8
0
100
AcDbLine
 10
22.71604093449004
 20
14.39622254704914
 30
0.0
 11
23.1651923532217
 21
14.8453739657808
 31
0.0
  0
LINE
  5
46C
330
1F
100
AcDbEntity
  8
0
100
AcDbLine
 10
16.09013545470404
 20
7.845270386068905
 30
0.0
 11
16.55344923582075
 21
8.308584167185625
 31
0.0
  0
LINE
  5
46D
330
1F
100
AcDbEntity
  8
0
100
AcDbLine
 10
19.3401231585459
 20
11.09525808991077
 30
0.0
 11
19.84490803204561
 21
11.60004296341048
 31
0.0
  0
LINE
  5
46E
330
1F
100
AcDbEntity
  8
0
100
AcDbLine
 10
20.99628517298087
 20
12.75142010434574
 30
0.0
 11
21.91385909426278
 21
13.66899402562765
 31
0.0
  0
LINE
  5
46F
330
1F
100
AcDbEntity
  8
0
100
AcDbLine
 10
22.67293313175812
 20
14.42806806312299
 30
0.0
 11
23.12230003505823
 21
14.8774349664231
 31
0.0
  0
LINE
  5
470
330
1F
100
AcDbEntity
  8
0
100
AcDbLine
 10
16.05805716777443
 20
7.888145417945071
 30
0.0
 11
16.52293363645294
 21
8.353021886623589
 31
0.0
  0
LINE
  5
471
330
1F
100
AcDbEntity
  8
0
100
AcDbLine
 10
19.34012315854779
 20
11.17021140871843
 30
0.0
 11
19.76729716748515
 21
11.59738541765579
 31
0.0
  0
LINE
  5
472
330
1F
100
AcDbEntity
  8
0
100
AcDbLine
 10
20.98334911754293
 20
12.81343736771357
 30
0.0
 11
21.8805452212417
 21
13.71063347141235
 31
0.0
  0
LINE
  5
473
330
1F
100
AcDbEntity
  8
0
100
AcDbLine
 10
22.6293832750308
 20
14.45947152520144
 30
0.0
 11
23.0789960959006
 21
14.90908434607124
 31
0.0
  0
LINE
  5
474
330
1F
100
AcDbEntity
  8
0
100
AcDbLine
 10
16.02629528016536
 20
7.931336849141776
 30
0.0
 11
16.49289476813158
 21
8.397936337108
 31
0.0
  0
LINE
  5
475
330
1F
100
AcDbEntity
  8
0
100
AcDbLine
 10
19.34012315854968
 20
11.24516472752609
 30
0.0
 11
19.69108162735562
 21
11.59612319633203
 31
0.0
  0
LINE
  5
476
330
1F
100
AcDbEntity
  8
0
100
AcDbLine
 10
20.96694814081048
 20
12.8719897097869
 30
0.0
 11
21.84621940504287
 21
13.75126097401929
 31
0.0
  0
LINE
  5
477
330
1F
100
AcDbEntity
  8
0
100
AcDbLine
 10
22.58535362808882
 20
14.49039519706524
 30
0.0
 11
23.03527571146423
 21
14.94031728044065
 31
0.0
  0
LINE
  5
478
330
1F
100
AcDbEntity
  8
0
100
AcDbLine
 10
15.99487004460098
 20
7.974864932383166
 30
0.0
 11
16.46333792640865
 21
8.443332814190837
 31
0.0
  0
LINE
  5
479
330
1F
100
AcDbEntity
  8
0
100
AcDbLine
 10
19.34012315855157
 20
11.32011804633376
 30
0.0
 11
19.61593945826402
 21
11.59593434604621
 31
0.0
  0
LINE
  5
47A
330
1F
100
AcDbEntity
  8
0
100
AcDbLine
 10
20.94755140603306
 20
12.92754629381525
 30
0.0
 11
21.81103976061701
 21
13.7910346483992
 31
0.0
  0
LINE
  5
47B
330
1F
100
AcDbEntity
  8
0
100
AcDbLine
 10
22.54080964032925
 20
14.52080452811144
 30
0.0
 11
22.99113353398283
 21
14.97112842176502
 31
0.0
  0
LINE
  5
47C
330
1F
100
AcDbEntity
  8
0
100
AcDbLine
 10
15.96380724853823
 20
8.018755455126197
 30
0.0
 11
16.43427281588677
 21
8.489221022474732
 31
0.0
  0
LINE
  5
47D
330
1F
100
AcDbEntity
  8
0
100
AcDbLine
 10
19.34012315855346
 20
11.39507136514142
 30
0.0
 11
19.5416030632683
 21
11.59655126985627
 31
0.0
  0
LINE
  5
47E
330
1F
100
AcDbEntity
  8
0
100
AcDbLine
 10
20.92548285312682
 20
12.98043105971478
 30
0.0
 11
21.77524030035887
 21
13.83018850694684
 31
0.0
  0
LINE
  5
47F
330
1F
100
AcDbEntity
  8
0
100
AcDbLine
 10
22.49573112903105
 20
14.55067933561901
 30
0.0
 11
22.94652808148239
 21
15.00147628807035
 31
0.0
  0
LINE
  5
480
330
1F
100
AcDbEntity
  8
0
100
AcDbLine
 10
15.93312685634845
 20
8.063028381742184
 30
0.0
 11
16.40571282011457
 21
8.535614345508305
 31
0.0
  0
LINE
  5
481
330
1F
100
AcDbEntity
  8
0
100
AcDbLine
 10
19.34012315855535
 20
11.47002468394908
 30
0.0
 11
19.46781871424452
 21
11.59772023963825
 31
0.0
  0
LINE
  5
482
330
1F
100
AcDbEntity
  8
0
100
AcDbLine
 10
20.9008407844424
 20
13.03074230983614
 30
0.0
 11
21.73908059991685
 21
13.86898212531059
 31
0.0
  0
LINE
  5
483
330
1F
100
AcDbEntity
  8
0
100
AcDbLine
 10
22.45012927587858
 20
14.58003080127231
 30
0.0
 11
22.90145603701939
 21
15.03135756241312
 31
0.0
  0
LINE
  5
484
330
1F
100
AcDbEntity
  8
0
100
AcDbLine
 10
15.90291225493969
 20
8.107767099139206
 30
0.0
 11
16.37767344154263
 21
8.582528285742146
 31
0.0
  0
LINE
  5
485
330
1F
100
AcDbEntity
  8
0
100
AcDbLine
 10
19.34012315855724
 20
11.54497800275675
 30
0.0
 11
19.39437805444803
 21
11.59923289864754
 31
0.0
  0
LINE
  5
486
330
1F
100
AcDbEntity
  8
0
100
AcDbLine
 10
20.87361336503651
 20
13.07846820923602
 30
0.0
 11
21.70130526429588
 21
13.90616010849539
 31
0.0
  0
LINE
  5
487
330
1F
100
AcDbEntity
  8
0
100
AcDbLine
 10
22.40401956086664
 20
14.60887440506615
 30
0.0
 11
22.85595227263969
 21
15.06080711683919
 31
0.0
  0
LINE
  5
488
330
1F
100
AcDbEntity
  8
0
100
AcDbLine
 10
15.87315176284287
 20
8.152959925848151
 30
0.0
 11
16.35017516290572
 21
8.62998332591101
 31
0.0
  0
LINE
  5
489
330
1F
100
AcDbEntity
  8
0
100
AcDbLine
 10
20.84376164717505
 20
13.12356981018034
 30
0.0
 11
21.66233958627452
 21
13.9421477492798
 31
0.0
  0
LINE
  5
48A
330
1F
100
AcDbEntity
  8
0
100
AcDbLine
 10
22.3574167989765
 20
14.63722496198178
 30
0.0
 11
22.81001995152428
 21
15.08982811452957
 31
0.0
  0
LINE
  5
48B
330
1F
100
AcDbEntity
  8
0
100
AcDbLine
 10
15.84387543930433
 20
8.198636921115389
 30
0.0
 11
16.32324356114641
 21
8.678005042957466
 31
0.0
  0
LINE
  5
48C
330
1F
100
AcDbEntity
  8
0
100
AcDbLine
 10
20.81150110541167
 20
13.16626258722273
 30
0.0
 11
21.62279403879716
 21
13.97755552060822
 31
0.0
  0
LINE
  5
48D
330
1F
100
AcDbEntity
  8
0
100
AcDbLine
 10
22.31031945903354
 20
14.66508094084459
 30
0.0
 11
22.76366212616382
 21
15.11842360797488
 31
0.0
  0
LINE
  5
48E
330
1F
100
AcDbEntity
  8
0
100
AcDbLine
 10
15.81511431921972
 20
8.244829119836547
 30
0.0
 11
16.2969058115018
 21
8.726620612118634
 31
0.0
  0
LINE
  5
48F
330
1F
100
AcDbEntity
  8
0
100
AcDbLine
 10
20.77748150691228
 20
13.20719630752911
 30
0.0
 11
21.58233088457937
 21
14.0120456851962
 31
0.0
  0
LINE
  5
490
330
1F
100
AcDbEntity
  8
0
100
AcDbLine
 10
22.26271505612471
 20
14.69242985674154
 30
0.0
 11
22.7168799639717
 21
15.14659476458853
 31
0.0
  0
LINE
  5
491
330
1F
100
AcDbEntity
  8
0
100
AcDbLine
 10
15.78689258831315
 20
8.291560707735755
 30
0.0
 11
16.27118049492296
 21
8.775848614345568
 31
0.0
  0
LINE
  5
492
330
1F
100
AcDbEntity
  8
0
100
AcDbLine
 10
20.74239516852606
 20
13.24706328794867
 30
0.0
 11
21.5406391455697
 21
14.0453072649923
 31
0.0
  0
LINE
  5
493
330
1F
100
AcDbEntity
  8
0
100
AcDbLine
 10
22.21458528637458
 20
14.71925340579718
 30
0.0
 11
22.66966676615469
 21
15.1743348855773
 31
0.0
  0
LINE
  5
494
330
1F
100
AcDbEntity
  8
0
100
AcDbLine
 10
15.75920590918478
 20
8.338827347413154
 30
0.0
 11
16.24604920525807
 21
8.825670643486452
 31
0.0
  0
LINE
  5
495
330
1F
100
AcDbEntity
  8
0
100
AcDbLine
 10
20.70469127282355
 20
13.28431271105193
 30
0.0
 11
21.49763950567732
 21
14.0772609439057
 31
0.0
  0
LINE
  5
496
330
1F
100
AcDbEntity
  8
0
100
AcDbLine
 10
22.16591200093495
 20
14.74553343916333
 30
0.0
 11
22.62200676993701
 21
15.20162820816538
 31
0.0
  0
LINE
  5
497
330
1F
100
AcDbEntity
  8
0
100
AcDbLine
 10
15.73202063289584
 20
8.386595389929994
 30
0.0
 11
16.22149832192679
 21
8.876073078960944
 31
0.0
  0
LINE
  5
498
330
1F
100
AcDbEntity
  8
0
100
AcDbLine
 10
20.66351948104506
 20
13.31809423807922
 30
0.0
 11
21.45335794019449
 21
14.10793269722865
 31
0.0
  0
LINE
  5
499
330
1F
100
AcDbEntity
  8
0
100
AcDbLine
 10
22.11668692977568
 20
14.77126168680983
 30
0.0
 11
22.57388066502216
 21
15.22845542205631
 31
0.0
  0
LINE
  5
49A
330
1F
100
AcDbEntity
  8
0
100
AcDbLine
 10
15.70534736449173
 20
8.43487544033166
 30
0.0
 11
16.1974685593241
 21
8.926996635164025
 31
0.0
  0
LINE
  5
49B
330
1F
100
AcDbEntity
  8
0
100
AcDbLine
 10
20.62027926139794
 20
13.34980733723787
 30
0.0
 11
21.40785459570399
 21
14.13738267154392
 31
0.0
  0
LINE
  5
49C
330
1F
100
AcDbEntity
  8
0
100
AcDbLine
 10
22.06690782294177
 20
14.7964358987817
 30
0.0
 11
22.5252666421978
 21
15.25479471803773
 31
0.0
  0
LINE
  5
49D
330
1F
100
AcDbEntity
  8
0
100
AcDbLine
 10
15.67910864435767
 20
8.483590039003374
 30
0.0
 11
16.17394051835975
 21
8.978421913005446
 31
0.0
  0
LINE
  5
49E
330
1F
100
AcDbEntity
  8
0
100
AcDbLine
 10
20.57318810758605
 20
13.37766950223175
 30
0.0
 11
21.36122788802431
 21
14.16570928267001
 31
0.0
  0
LINE
  5
49F
330
1F
100
AcDbEntity
  8
0
100
AcDbLine
 10
22.01657414705771
 20
14.82105554170341
 30
0.0
 11
22.47609720861197
 21
15.28057860325767
 31
0.0
  0
LINE
  5
4A0
330
1F
100
AcDbEntity
  8
0
100
AcDbLine
 10
15.65324911942797
 20
8.53268383287944
 30
0.0
 11
16.15096830910564
 21
9.030403022557115
 31
0.0
  0
LINE
  5
4A1
330
1F
100
AcDbEntity
  8
0
100
AcDbLine
 10
20.5219073064475
 20
13.40134201989897
 30
0.0
 11
21.31342197526868
 21
14.19285668872015
 31
0.0
  0
LINE
  5
4A2
330
1F
100
AcDbEntity
  8
0
100
AcDbLine
 10
21.96568436817108
 20
14.84511908162255
 30
0.0
 11
22.42643213702365
 21
15.30586685047512
 31
0.0
  0
LINE
  5
4A3
330
1F
100
AcDbEntity
  8
0
100
AcDbLine
 10
15.62782000676891
 20
8.582208039026153
 30
0.0
 11
16.12862310346303
 21
9.08301113572028
 31
0.0
  0
LINE
  5
4A4
330
1F
100
AcDbEntity
  8
0
100
AcDbLine
 10
20.46699355943736
 20
13.4213815916946
 30
0.0
 11
21.26453775470974
 21
14.21892578696698
 31
0.0
  0
LINE
  5
4A5
330
1F
100
AcDbEntity
  8
0
100
AcDbLine
 10
21.91422145982332
 20
14.86860949208056
 30
0.0
 11
22.37628280097016
 21
15.3306708332274
 31
0.0
  0
LINE
  5
4A6
330
1F
100
AcDbEntity
  8
0
100
AcDbLine
 10
15.60284946490555
 20
8.63219081596857
 30
0.0
 11
16.10697480653381
 21
9.136316157596832
 31
0.0
  0
LINE
  5
4A7
330
1F
100
AcDbEntity
  8
0
100
AcDbLine
 10
20.4089483131061
 20
13.43828966416912
 30
0.0
 11
21.21451172505471
 21
14.24385307611773
 31
0.0
  0
LINE
  5
4A8
330
1F
100
AcDbEntity
  8
0
100
AcDbLine
 10
21.86216255764907
 20
14.89150390871209
 30
0.0
 11
22.32566099716396
 21
15.35500234822698
 31
0.0
  0
LINE
  5
4A9
330
1F
100
AcDbEntity
  8
0
100
AcDbLine
 10
15.57838973990798
 20
8.682684409776776
 30
0.0
 11
16.08605253433029
 21
9.19034720419908
 31
0.0
  0
LINE
  5
4AA
330
1F
100
AcDbEntity
  8
0
100
AcDbLine
 10
20.34817321140662
 20
13.45246788127541
 30
0.0
 11
21.16321109193964
 21
14.26750576180843
 31
0.0
  0
LINE
  5
4AB
330
1F
100
AcDbEntity
  8
0
100
AcDbLine
 10
21.80947038407102
 20
14.91376505393981
 30
0.0
 11
22.27457285371488
 21
15.37886752358367
 31
0.0
  0
LINE
  5
4AC
330
1F
100
AcDbEntity
  8
0
100
AcDbLine
 10
15.55445894028878
 20
8.73370692896335
 30
0.0
 11
16.0658409531772
 21
9.245088941851773
 31
0.0
  0
LINE
  5
4AD
330
1F
100
AcDbEntity
  8
0
100
AcDbLine
 10
20.28447371047615
 20
13.46372169915072
 30
0.0
 11
21.11074944067571
 21
14.28999742935028
 31
0.0
  0
LINE
  5
4AE
330
1F
100
AcDbEntity
  8
0
100
AcDbLine
 10
21.75609086232187
 20
14.93533885099643
 30
0.0
 11
22.22300574421794
 21
15.40225373289251
 31
0.0
  0
LINE
  5
4AF
330
1F
100
AcDbEntity
  8
0
100
AcDbLine
 10
15.53104372307893
 20
8.785245030559272
 30
0.0
 11
16.04631330077754
 21
9.30051460825788
 31
0.0
  0
LINE
  5
4B0
330
1F
100
AcDbEntity
  8
0
100
AcDbLine
 10
20.2174528138003
 20
13.47165412128064
 30
0.0
 11
21.05703301150961
 21
14.31123431898995
 31
0.0
  0
LINE
  5
4B1
330
1F
100
AcDbEntity
  8
0
100
AcDbLine
 10
21.70203874986173
 20
14.95624005734207
 30
0.0
 11
22.17093153623223
 21
15.42513284371257
 31
0.0
  0
LINE
  5
4B2
330
1F
100
AcDbEntity
  8
0
100
AcDbLine
 10
15.50814122775201
 20
8.83729585403813
 30
0.0
 11
16.0274435289824
 21
9.35659815526851
 31
0.0
  0
LINE
  5
4B3
330
1F
100
AcDbEntity
  8
0
100
AcDbLine
 10
20.14754324950957
 20
13.47669787579568
 30
0.0
 11
21.00182404253001
 21
14.33097866881613
 31
0.0
  0
LINE
  5
4B4
330
1F
100
AcDbEntity
  8
0
100
AcDbLine
 10
21.64729466524523
 20
14.97644929153135
 30
0.0
 11
22.11831800280438
 21
15.44747262909049
 31
0.0
  0
LINE
  5
4B5
330
1F
100
AcDbEntity
  8
0
100
AcDbLine
 10
15.48574818919901
 20
8.889856134290898
 30
0.0
 11
16.00922734936081
 21
9.413335294452695
 31
0.0
  0
LINE
  5
4B6
330
1F
100
AcDbEntity
  8
0
100
AcDbLine
 10
20.07566566171083
 20
13.47977360680272
 30
0.0
 11
20.94532224624918
 21
14.34943019134106
 31
0.0
  0
LINE
  5
4B7
330
1F
100
AcDbEntity
  8
0
100
AcDbLine
 10
21.59184066595169
 20
14.99594861104358
 30
0.0
 11
22.06513301531696
 21
15.46924096040885
 31
0.0
  0
LINE
  5
4B8
330
1F
100
AcDbEntity
  8
0
100
AcDbLine
 10
15.46382565447616
 20
8.94288691837382
 30
0.0
 11
15.9917112753957
 21
9.470772539293367
 31
0.0
  0
LINE
  5
4B9
330
1F
100
AcDbEntity
  8
0
100
AcDbLine
 10
20.00040800434159
 20
13.47946926823925
 30
0.0
 11
20.88751722078914
 21
14.3665784846868
 31
0.0
  0
LINE
  5
4BA
330
1F
100
AcDbEntity
  8
0
100
AcDbLine
 10
21.53568284709795
 20
15.01474411099561
 30
0.0
 11
22.01135650305294
 21
15.4904177669506
 31
0.0
  0
LINE
  5
4BB
330
1F
100
AcDbEntity
  8
0
100
AcDbLine
 10
15.44246859351325
 20
8.99648317621669
 30
0.0
 11
15.97483320437068
 21
9.528847787074115
 31
0.0
  0
LINE
  5
4BC
330
1F
100
AcDbEntity
  8
0
100
AcDbLine
 10
19.92061952460546
 20
13.47463410730889
 30
0.0
 11
20.82840024508654
 21
14.38241482778998
 31
0.0
  0
LINE
  5
4BD
330
1F
100
AcDbEntity
  8
0
100
AcDbLine
 10
21.47885687930471
 20
15.03287146200815
 30
0.0
 11
21.95698105794614
 21
15.51099564064958
 31
0.0
  0
LINE
  5
4BE
330
1F
100
AcDbEntity
  8
0
100
AcDbLine
 10
15.42172680093855
 20
9.050694702447764
 30
0.0
 11
15.95859298799891
 21
9.587560889508122
 31
0.0
  0
LINE
  5
4BF
330
1F
100
AcDbEntity
  8
0
100
AcDbLine
 10
18.93436326100259
 20
12.5633311625118
 30
0.0
 11
18.9796896148686
 21
12.60865751637781
 31
0.0
  0
LINE
  5
4C0
330
1F
100
AcDbEntity
  8
0
100
AcDbLine
 10
19.83646426098545
 20
13.46543216249466
 30
0.0
 11
20.76823025998405
 21
14.39719816149326
 31
0.0
  0
LINE
  5
4C1
330
1F
100
AcDbEntity
  8
0
100
AcDbLine
 10
21.42140706179226
 20
15.05037496330147
 30
0.0
 11
21.90200375678202
 21
15.53097165829123
 31
0.0
  0
LINE
  5
4C2
330
1F
100
AcDbEntity
  8
0
100
AcDbLine
 10
15.40159330890311
 20
9.105514529218091
 30
0.0
 11
15.9430029991867
 21
9.646924219501688
 31
0.0
  0
LINE
  5
4C3
330
1F
100
AcDbEntity
  8
0
100
AcDbLine
 10
18.85940994219581
 20
12.5633311625108
 30
0.0
 11
19.0121055934819
 21
12.71602681379689
 31
0.0
  0
LINE
  5
4C4
330
1F
100
AcDbEntity
  8
0
100
AcDbLine
 10
19.74302103160732
 20
13.4469422519223
 30
0.0
 11
20.70690374433342
 21
14.4108249646484
 31
0.0
  0
LINE
  5
4C5
330
1F
100
AcDbEntity
  8
0
100
AcDbLine
 10
21.36336587516606
 20
15.06728709548104
 30
0.0
 11
21.84642225988992
 21
15.5503434802049
 31
0.0
  0
LINE
  5
4C6
330
1F
100
AcDbEntity
  8
0
100
AcDbLine
 10
15.38210602154456
 20
9.160980560665315
 30
0.0
 11
15.92807617982133
 21
9.706950718942085
 31
0.0
  0
LINE
  5
4C7
330
1F
100
AcDbEntity
  8
0
100
AcDbLine
 10
18.78445662338904
 20
12.5633311625098
 30
0.0
 11
19.05823617681691
 21
12.83711071593767
 31
0.0
  0
LINE
  5
4C8
330
1F
100
AcDbEntity
  8
0
100
AcDbLine
 10
19.63332273540086
 20
13.41219727452162
 30
0.0
 11
20.64430921717126
 21
14.42318375629202
 31
0.0
  0
LINE
  5
4C9
330
1F
100
AcDbEntity
  8
0
100
AcDbLine
 10
21.30465987665646
 20
15.08353441577722
 30
0.0
 11
21.79024124094617
 21
15.56911578006692
 31
0.0
  0
LINE
  5
4CA
330
1F
100
AcDbEntity
  8
0
100
AcDbLine
 10
15.36326098830108
 20
9.21708884622761
 30
0.0
 11
15.91383235490527
 21
9.7676602128318
 31
0.0
  0
LINE
  5
4CB
330
1F
100
AcDbEntity
  8
0
100
AcDbLine
 10
18.70950330458226
 20
12.56333116250879
 30
0.0
 11
19.14055188011503
 21
12.99437973804156
 31
0.0
  0
LINE
  5
4CC
330
1F
100
AcDbEntity
  8
0
100
AcDbLine
 10
19.48702992119816
 20
13.34085777912469
 30
0.0
 11
20.58047627372314
 21
14.43430413164967
 31
0.0
  0
LINE
  5
4CD
330
1F
100
AcDbEntity
  8
0
100
AcDbLine
 10
21.24522407732357
 20
15.0990519352501
 30
0.0
 11
21.73348088548997
 21
15.5873087434165
 31
0.0
  0
LINE
  5
4CE
330
1F
100
AcDbEntity
  8
0
100
AcDbLine
 10
15.34510184258166
 20
9.273883019313962
 30
0.0
 11
15.90033323380611
 21
9.829114410538413
 31
0.0
  0
LINE
  5
4CF
330
1F
100
AcDbEntity
  8
0
100
AcDbLine
 10
18.63454998577548
 20
12.56333116250779
 30
0.0
 11
20.51511713032731
 21
14.44389830705962
 31
0.0
  0
LINE
  5
4D0
330
1F
100
AcDbEntity
  8
0
100
AcDbLine
 10
21.18501633671848
 20
15.11379751345079
 30
0.0
 11
21.6761673647205
 21
15.6049485414528
 31
0.0
  0
LINE
  5
4D1
330
1F
100
AcDbEntity
  8
0
100
AcDbLine
 10
15.32749762475422
 20
9.331232120292295
 30
0.0
 11
15.8876424207099
 21
9.891376916247982
 31
0.0
  0
LINE
  5
4D2
330
1F
100
AcDbEntity
  8
0
100
AcDbLine
 10
18.5595966669687
 20
12.56333116250678
 30
0.0
 11
20.44824083498056
 21
14.45197533051864
 31
0.0
  0
LINE
  5
4D3
330
1F
100
AcDbEntity
  8
0
100
AcDbLine
 10
21.12401196159933
 20
15.12774645713741
 30
0.0
 11
21.61833223416799
 21
15.62206672970606
 31
0.0
  0
LINE
  5
4D4
330
1F
100
AcDbEntity
  8
0
100
AcDbLine
 10
15.31042902351986
 20
9.389116837863707
 30
0.0
 11
15.87574856345582
 21
9.954436377799668
 31
0.0
  0
LINE
  5
4D5
330
1F
100
AcDbEntity
  8
0
100
AcDbLine
 10
18.48464334816193
 20
12.56333116250578
 30
0.0
 11
20.3798024309594
 21
14.45849024530325
 31
0.0
  0
LINE
  5
4D6
330
1F
100
AcDbEntity
  8
0
100
AcDbLine
 10
21.0622509600879
 20
15.14093877443175
 30
0.0
 11
21.55995058241083
 21
15.63863839675468
 31
0.0
  0
LINE
  5
4D7
330
1F
100
AcDbEntity
  8
0
100
AcDbLine
 10
15.29387715182015
 20
9.44751828496978
 30
0.0
 11
15.86468519458937
 21
10.018326327739
 31
0.0
  0
LINE
  5
4D8
330
1F
100
AcDbEntity
  8
0
100
AcDbLine
 10
18.40969002935515
 20
12.56333116250477
 30
0.0
 11
20.30974456779484
 21
14.46338570094447
 31
0.0
  0
LINE
  5
4D9
330
1F
100
AcDbEntity
  8
0
100
AcDbLine
 10
20.99978900650006
 20
15.15343013964968
 30
0.0
 11
21.50102336959322
 21
15.65466450274284
 31
0.0
  0
LINE
  5
4DA
330
1F
100
AcDbEntity
  8
0
100
AcDbLine
 10
15.27792231658424
 20
9.506516768539639
 30
0.0
 11
15.85448389832247
 21
10.08307835027787
 31
0.0
  0
LINE
  5
4DB
330
1F
100
AcDbEntity
  8
0
100
AcDbLine
 10
18.33473671054837
 20
12.56333116250377
 30
0.0
 11
20.23818567742012
 21
14.46678012937552
 31
0.0
  0
LINE
  5
4DC
330
1F
100
AcDbEntity
  8
0
100
AcDbLine
 10
20.93660187723883
 20
15.16519632919423
 30
0.0
 11
21.44149373803788
 21
15.67008818999327
 31
0.0
  0
LINE
  5
4DD
330
1F
100
AcDbEntity
  8
0
100
AcDbLine
 10
15.26263443476827
 20
9.566182205529447
 30
0.0
 11
15.84517547372594
 21
10.14872324448711
 31
0.0
  0
LINE
  5
4DE
330
1F
100
AcDbEntity
  8
0
100
AcDbLine
 10
18.2597833917416
 20
12.56333116250277
 30
0.0
 11
20.16550275608178
 21
14.46905052684295
 31
0.0
  0
LINE
  5
4DF
330
1F
100
AcDbEntity
  8
0
100
AcDbLine
 10
20.87266325583645
 20
15.17621102659762
 30
0.0
 11
21.3812528649436
 21
15.68480063570477
 31
0.0
  0
LINE
  5
4E0
330
1F
100
AcDbEntity
  8
0
100
AcDbLine
 10
15.24807783644938
 20
9.626578926016329
 30
0.0
 11
15.83690814233721
 21
10.21540923190416
 31
0.0
  0
LINE
  5
4E1
330
1F
100
AcDbEntity
  8
0
100
AcDbLine
 10
18.18483007293482
 20
12.56333116250176
 30
0.0
 11
20.09217145534848
 21
14.47067254491543
 31
0.0
  0
LINE
  5
4E2
330
1F
100
AcDbEntity
  8
0
100
AcDbLine
 10
20.80791637795583
 20
15.18641746752277
 30
0.0
 11
21.32022765197238
 21
15.69872874153933
 31
0.0
  0
LINE
  5
4E3
330
1F
100
AcDbEntity
  8
0
100
AcDbLine
 10
15.23425745204374
 20
9.687711860416456
 30
0.0
 11
15.82949059955216
 21
10.28294500792488
 31
0.0
  0
LINE
  5
4E4
330
1F
100
AcDbEntity
  8
0
100
AcDbLine
 10
18.10987675412804
 20
12.56333116250076
 30
0.0
 11
20.01632568143732
 21
14.46978008981004
 31
0.0
  0
LINE
  5
4E5
330
1F
100
AcDbEntity
  8
0
100
AcDbLine
 10
20.74227460565867
 20
15.19572901403139
 30
0.0
 11
21.25851485257062
 21
15.71196926094334
 31
0.0
  0
LINE
  5
4E6
330
1F
100
AcDbEntity
  8
0
100
AcDbLine
 10
15.22113415354658
 20
9.749541880725072
 30
0.0
 11
15.82283829939025
 21
10.35124602656874
 31
0.0
  0
LINE
  5
4E7
330
1F
100
AcDbEntity
  8
0
100
AcDbLine
 10
18.03492343532126
 20
12.56333116249975
 30
0.0
 11
19.93921997842069
 21
14.46762770559918
 31
0.0
  0
LINE
  5
4E8
330
1F
100
AcDbEntity
  8
0
100
AcDbLine
 10
20.67570975142598
 20
15.20411747860448
 30
0.0
 11
21.19615851060421
 21
15.7245662377827
 31
0.0
  0
LINE
  5
4E9
330
1F
100
AcDbEntity
  8
0
100
AcDbLine
 10
15.20865618205129
 20
9.81201722803556
 30
0.0
 11
15.81688313216809
 21
10.42024417815235
 31
0.0
  0
LINE
  5
4EA
330
1F
100
AcDbEntity
  8
0
100
AcDbLine
 10
17.95997011651448
 20
12.56333116249875
 30
0.0
 11
19.86085850932777
 21
14.46421955531203
 31
0.0
  0
LINE
  5
4EB
330
1F
100
AcDbEntity
  8
0
100
AcDbLine
 10
20.60811670822553
 20
15.2114777542098
 30
0.0
 11
21.13312882654832
 21
15.73648987253258
 31
0.0
  0
LINE
  5
4EC
330
1F
100
AcDbEntity
  8
0
100
AcDbLine
 10
15.19678447348883
 20
9.875098838278868
 30
0.0
 11
15.81176210995083
 21
10.49007647474087
 31
0.0
  0
LINE
  5
4ED
330
1F
100
AcDbEntity
  8
0
100
AcDbLine
 10
17.88501679770771
 20
12.56333116249774
 30
0.0
 11
19.78039284049365
 21
14.45870720528369
 31
0.0
  0
LINE
  5
4EE
330
1F
100
AcDbEntity
  8
0
100
AcDbLine
 10
20.5396822609308
 20
15.21799662572083
 30
0.0
 11
21.06951825079425
 21
15.74783261558429
 31
0.0
  0
LINE
  5
4EF
330
1F
100
AcDbEntity
  8
0
100
AcDbLine
 10
15.18554258345799
 20
9.9388102670538
 30
0.0
 11
15.80763595024981
 21
10.56090363384563
 31
0.0
  0
LINE
  5
4F0
330
1F
100
AcDbEntity
  8
0
100
AcDbLine
 10
17.81006347890093
 20
12.56333116249674
 30
0.0
 11
19.69714395316387
 21
14.45041163675968
 31
0.0
  0
LINE
  5
4F1
330
1F
100
AcDbEntity
  8
0
100
AcDbLine
 10
20.47028965845966
 20
15.22355734205547
 30
0.0
 11
21.00527005896086
 21
15.75853774255668
 31
0.0
  0
LINE
  5
4F2
330
1F
100
AcDbEntity
  8
0
100
AcDbLine
 10
15.17499844782363
 20
10.00321945022521
 30
0.0
 11
15.80474962056125
 21
10.63297062296284
 31
0.0
  0
LINE
  5
4F3
330
1F
100
AcDbEntity
  8
0
100
AcDbLine
 10
17.73511016009415
 20
12.56333116249574
 30
0.0
 11
19.61093425047498
 21
14.43915525287657
 31
0.0
  0
LINE
  5
4F4
330
1F
100
AcDbEntity
  8
0
100
AcDbLine
 10
20.39980711741492
 20
15.22802811981651
 30
0.0
 11
20.94032711847658
 21
15.76854812087817
 31
0.0
  0
LINE
  5
4F5
330
1F
100
AcDbEntity
  8
0
100
AcDbLine
 10
15.1652293564257
 20
10.06840367763306
 30
0.0
 11
15.80300926472789
 21
10.70618358593525
 31
0.0
  0
LINE
  5
4F6
330
1F
100
AcDbEntity
  8
0
100
AcDbLine
 10
17.66726732819305
 20
12.57044164940041
 30
0.0
 11
19.5217502418785
 21
14.42492456308586
 31
0.0
  0
LINE
  5
4F7
330
1F
100
AcDbEntity
  8
0
100
AcDbLine
 10
20.32812402639256
 20
15.23129834759992
 30
0.0
 11
20.8746295061151
 21
15.77780382732246
 31
0.0
  0
LINE
  5
4F8
330
1F
100
AcDbEntity
  8
0
100
AcDbLine
 10
15.1563553011199
 20
10.13448294113303
 30
0.0
 11
15.80200265958322
 21
10.78013029959636
 31
0.0
  0
LINE
  5
4F9
330
1F
100
AcDbEntity
  8
0
100
AcDbLine
 10
17.69032358682668
 20
12.66845122683981
 30
0.0
 11
19.42941321303473
 21
14.40754085304786
 31
0.0
  0
LINE
  5
4FA
330
1F
100
AcDbEntity
  8
0
100
AcDbLine
 10
20.25525028680409
 20
15.23337792681722
 30
0.0
 11
20.80813956570473
 21
15.78626720571786
 31
0.0
  0
LINE
  5
4FB
330
1F
100
AcDbEntity
  8
0
100
AcDbLine
 10
15.14834487493453
 20
10.20142583375344
 30
0.0
 11
15.80183405537855
 21
10.85491501419746
 31
0.0
  0
LINE
  5
4FC
330
1F
100
AcDbEntity
  8
0
100
AcDbLine
 10
17.71643904493983
 20
12.76952000375874
 30
0.0
 11
19.3326072461747
 21
14.3856882049936
 31
0.0
  0
LINE
  5
4FD
330
1F
100
AcDbEntity
  8
0
100
AcDbLine
 10
20.18151713234327
 20
15.23459809116218
 30
0.0
 11
20.74084770013382
 21
15.79392865895272
 31
0.0
  0
LINE
  5
4FE
330
1F
100
AcDbEntity
  8
0
100
AcDbLine
 10
15.1411751766281
 20
10.26920945425278
 30
0.0
 11
15.80276640545756
 21
10.93080068308224
 31
0.0
  0
LINE
  5
4FF
330
1F
100
AcDbEntity
  8
0
100
AcDbLine
 10
17.74846965656891
 20
12.87650393419359
 30
0.0
 11
19.22941721950988
 21
14.35745149713456
 31
0.0
  0
LINE
  5
500
330
1F
100
AcDbEntity
  8
0
100
AcDbLine
 10
20.10709204026389
 20
15.23512631788858
 30
0.0
 11
20.67275578873765
 21
15.80079006636233
 31
0.0
  0
LINE
  5
501
330
1F
100
AcDbEntity
  8
0
100
AcDbLine
 10
15.1347817777568
 20
10.33776937418725
 30
0.0
 11
15.80443986882109
 21
11.00742746525155
 31
0.0
  0
LINE
  5
502
330
1F
100
AcDbEntity
  8
0
100
AcDbLine
 10
17.78800103294932
 20
12.99098862937978
 30
0.0
 11
19.11827635719893
 21
14.32126395362938
 31
0.0
  0
LINE
  5
503
330
1F
100
AcDbEntity
  8
0
100
AcDbLine
 10
20.03029216255593
 20
15.23327975898639
 30
0.0
 11
20.60394295047225
 21
15.80693054690271
 31
0.0
  0
LINE
  5
504
330
1F
100
AcDbEntity
  8
0
100
AcDbLine
 10
15.12925514025859
 20
10.40719605549481
 30
0.0
 11
15.80739032041815
 21
11.08533123565438
 31
0.0
  0
LINE
  5
505
330
1F
100
AcDbEntity
  8
0
100
AcDbLine
 10
17.83675960814172
 20
13.11470052337795
 30
0.0
 11
18.99713593213119
 21
14.27507684736742
 31
0.0
  0
LINE
  5
506
330
1F
100
AcDbEntity
  8
0
100
AcDbLine
 10
19.95312435418001
 20
15.23106526941624
 30
0.0
 11
20.53422133699874
 21
15.81216225223497
 31
0.0
  0
LINE
  5
507
330
1F
100
AcDbEntity
  8
0
100
AcDbLine
 10
15.12460790099797
 20
10.47750213503998
 30
0.0
 11
15.81200913075092
 21
11.16490336479293
 31
0.0
  0
LINE
  5
508
330
1F
100
AcDbEntity
  8
0
100
AcDbLine
 10
17.89978772686553
 20
13.25268196090753
 30
0.0
 11
18.86127897889266
 21
14.21417321293467
 31
0.0
  0
LINE
  5
509
330
1F
100
AcDbEntity
  8
0
100
AcDbLine
 10
19.87529953318314
 20
15.22819376722514
 30
0.0
 11
20.46364575400549
 21
15.8165399880475
 31
0.0
  0
LINE
  5
50A
330
1F
100
AcDbEntity
  8
0
100
AcDbLine
 10
15.12089797123365
 20
10.54874552408143
 30
0.0
 11
15.81807708691465
 21
11.24592463976242
 31
0.0
  0
LINE
  5
50B
330
1F
100
AcDbEntity
  8
0
100
AcDbLine
 10
17.99244177840695
 20
13.42028933125473
 30
0.0
 11
18.69490698536372
 21
14.1227545382115
 31
0.0
  0
LINE
  5
50C
330
1F
100
AcDbEntity
  8
0
100
AcDbLine
 10
19.79631757406771
 20
15.22416512691549
 30
0.0
 11
20.3921722664222
 21
15.82001981926998
 31
0.0
  0
LINE
  5
50D
330
1F
100
AcDbEntity
  8
0
100
AcDbLine
 10
15.11816202339105
 20
10.6209628950446
 30
0.0
 11
15.82546607572978
 21
11.32826694738333
 31
0.0
  0
LINE
  5
50E
330
1F
100
AcDbEntity
  8
0
100
AcDbLine
 10
18.17539109148285
 20
13.6781919631364
 30
0.0
 11
18.42262480351368
 21
13.92542567516723
 31
0.0
  0
LINE
  5
50F
330
1F
100
AcDbEntity
  8
0
100
AcDbLine
 10
19.71588235195913
 20
15.21868322361268
 30
0.0
 11
20.31978456490221
 21
15.82258543655576
 31
0.0
  0
LINE
  5
510
330
1F
100
AcDbEntity
  8
0
100
AcDbLine
 10
15.11625090924259
 20
10.69400509970192
 30
0.0
 11
15.83419934432878
 21
11.4119535347881
 31
0.0
  0
LINE
  5
511
330
1F
100
AcDbEntity
  8
0
100
AcDbLine
 10
19.6335079213141
 20
15.21126211177342
 30
0.0
 11
20.2466443000596
 21
15.82439849051892
 31
0.0
  0
LINE
  5
512
330
1F
100
AcDbEntity
  8
0
100
AcDbLine
 10
15.11488828866108
 20
10.76759579792618
 30
0.0
 11
15.84450141623475
 21
11.49720892549985
 31
0.0
  0
LINE
  5
513
330
1F
100
AcDbEntity
  8
0
100
AcDbLine
 10
19.54870468709876
 20
15.20141219636385
 30
0.0
 11
20.17300501860172
 21
15.82571252786682
 31
0.0
  0
LINE
  5
514
330
1F
100
AcDbEntity
  8
0
100
AcDbLine
 10
15.11424624477451
 20
10.84190707284538
 30
0.0
 11
15.85695964972059
 21
11.58462047779146
 31
0.0
  0
LINE
  5
515
330
1F
100
AcDbEntity
  8
0
100
AcDbLine
 10
19.46156167767876
 20
15.18922250574962
 30
0.0
 11
20.09867238415888
 21
15.82633321222975
 31
0.0
  0
LINE
  5
516
330
1F
100
AcDbEntity
  8
0
100
AcDbLine
 10
15.11547549398917
 20
10.91808964086582
 30
0.0
 11
15.87164488759156
 21
11.6742590344682
 31
0.0
  0
LINE
  5
517
330
1F
100
AcDbEntity
  8
0
100
AcDbLine
 10
19.37201712652748
 20
15.17463127340413
 30
0.0
 11
20.02248981525067
 21
15.82510396212731
 31
0.0
  0
LINE
  5
518
330
1F
100
AcDbEntity
  8
0
100
AcDbLine
 10
15.11714060297706
 20
10.99470806865948
 30
0.0
 11
15.889017140038
 21
11.76658460572042
 31
0.0
  0
LINE
  5
519
330
1F
100
AcDbEntity
  8
0
100
AcDbLine
 10
19.28003301348827
 20
15.15760047917069
 30
0.0
 11
19.94587138723736
 21
15.82343885291978
 31
0.0
  0
LINE
  5
51A
330
1F
100
AcDbEntity
  8
0
100
AcDbLine
 10
15.11962114790027
 20
11.07214193238846
 30
0.0
 11
15.90925852582099
 21
11.86177931030918
 31
0.0
  0
LINE
  5
51B
330
1F
100
AcDbEntity
  8
0
100
AcDbLine
 10
19.18555854438928
 20
15.13807932887747
 30
0.0
 11
19.86843752459005
 21
15.82095830907824
 31
0.0
  0
LINE
  5
51C
330
1F
100
AcDbEntity
  8
0
100
AcDbLine
 10
15.12327811877226
 20
11.15075222206623
 30
0.0
 11
15.93214559495516
 21
11.95961969824912
 31
0.0
  0
LINE
  5
51D
330
1F
100
AcDbEntity
  8
0
100
AcDbLine
 10
19.08822820595228
 20
15.11570230924625
 30
0.0
 11
19.78982723760453
 21
15.81730134089849
 31
0.0
  0
LINE
  5
51E
330
1F
100
AcDbEntity
  8
0
100
AcDbLine
 10
15.12827745485631
 20
11.23070487695604
 30
0.0
 11
15.95781385275125
 21
12.06024127485099
 31
0.0
  0
LINE
  5
51F
330
1F
100
AcDbEntity
  8
0
100
AcDbLine
 10
18.98796887786169
 20
15.09039629996143
 30
0.0
 11
19.70987458480501
 21
15.81230200690475
 31
0.0
  0
LINE
  5
520
330
1F
100
AcDbEntity
  8
0
100
AcDbLine
 10
15.13465317351049
 20
11.31203391441601
 30
0.0
 11
15.98692347241744
 21
12.16430421332295
 31
0.0
  0
LINE
  5
521
330
1F
100
AcDbEntity
  8
0
100
AcDbLine
 10
18.88363030074779
 20
15.0610110416533
 30
0.0
 11
19.62854554467038
 21
15.80592628557589
 31
0.0
  0
LINE
  5
522
330
1F
100
AcDbEntity
  8
0
100
AcDbLine
 10
15.14239008142243
 20
11.39472414113372
 30
0.0
 11
16.02026512122431
 21
12.27259918093559
 31
0.0
  0
LINE
  5
523
330
1F
100
AcDbEntity
  8
0
100
AcDbLine
 10
18.77500718825475
 20
15.02734124796604
 30
0.0
 11
19.54585530765482
 21
15.79818936736611
 31
0.0
  0
LINE
  5
524
330
1F
100
AcDbEntity
  8
0
100
AcDbLine
 10
15.15177650468494
 20
11.479063883202
 30
0.0
 11
16.05851236828887
 21
12.38579974680593
 31
0.0
  0
LINE
  5
525
330
1F
100
AcDbEntity
  8
0
100
AcDbLine
 10
18.66110872565145
 20
14.98839610416851
 30
0.0
 11
19.46151555731425
 21
15.78880293583131
 31
0.0
  0
LINE
  5
526
330
1F
100
AcDbEntity
  8
0
100
AcDbLine
 10
15.16281722977727
 20
11.5650579271001
 30
0.0
 11
16.10322870912458
 21
12.50546940644742
 31
0.0
  0
LINE
  5
527
330
1F
100
AcDbEntity
  8
0
100
AcDbLine
 10
18.54026591516491
 20
14.94250661248774
 30
0.0
 11
19.37552152544863
 21
15.77776222277147
 31
0.0
  0
LINE
  5
528
330
1F
100
AcDbEntity
  8
0
100
AcDbLine
 10
15.17579633423824
 20
11.65299035036685
 30
0.0
 11
16.15634904521632
 21
12.63354306134493
 31
0.0
  0
LINE
  5
529
330
1F
100
AcDbEntity
  8
0
100
AcDbLine
 10
18.41105778040675
 20
14.88825179653536
 30
0.0
 11
19.28758914705813
 21
15.76478316318674
 31
0.0
  0
LINE
  5
52A
330
1F
100
AcDbEntity
  8
0
100
AcDbLine
 10
15.19086583236139
 20
11.74301316729577
 30
0.0
 11
16.22033617070205
 21
12.77248350563643
 31
0.0
  0
LINE
  5
52B
330
1F
100
AcDbEntity
  8
0
100
AcDbLine
 10
18.27074704832946
 20
14.82289438326384
 30
0.0
 11
19.19756635570502
 21
15.7497136906394
 31
0.0
  0
LINE
  5
52C
330
1F
100
AcDbEntity
  8
0
100
AcDbLine
 10
15.20779749698202
 20
11.83489815072217
 30
0.0
 11
16.29794666886204
 21
12.9250473226022
 31
0.0
  0
LINE
  5
52D
330
1F
100
AcDbEntity
  8
0
100
AcDbLine
 10
18.11569224611484
 20
14.742792899855
 30
0.0
 11
19.10568128287857
 21
15.73278193661873
 31
0.0
  0
LINE
  5
52E
330
1F
100
AcDbEntity
  8
0
100
AcDbLine
 10
15.22676979462213
 20
11.92882376716806
 30
0.0
 11
16.39584149685052
 21
13.09789546939644
 31
0.0
  0
LINE
  5
52F
330
1F
100
AcDbEntity
  8
0
100
AcDbLine
 10
17.9398150812284
 20
14.64186905377433
 30
0.0
 11
19.01175545858652
 21
15.71380943113245
 31
0.0
  0
LINE
  5
530
330
1F
100
AcDbEntity
  8
0
100
AcDbLine
 10
15.24819420896576
 20
12.02520150031746
 30
0.0
 11
16.52685434201113
 21
13.30386163336284
 31
0.0
  0
LINE
  5
531
330
1F
100
AcDbEntity
  8
0
100
AcDbLine
 10
17.72935706176223
 20
14.50636435311394
 30
0.0
 11
18.91537779002056
 21
15.69238508137226
 31
0.0
  0
LINE
  5
532
330
1F
100
AcDbEntity
  8
0
100
AcDbLine
 10
15.2725580823944
 20
12.12451869255188
 30
0.0
 11
16.74649304458888
 21
13.59845365474636
 31
0.0
  0
LINE
  5
533
330
1F
100
AcDbEntity
  8
0
100
AcDbLine
 10
17.42777029381387
 20
14.27973090397135
 30
0.0
 11
18.81606136891084
 21
15.66802197906832
 31
0.0
  0
LINE
  5
534
330
1F
100
AcDbEntity
  8
0
100
AcDbLine
 10
15.30043993689331
 20
12.22735386585656
 30
0.0
 11
18.71322666176517
 21
15.64014059072843
 31
0.0
  0
LINE
  5
535
330
1F
100
AcDbEntity
  8
0
100
AcDbLine
 10
15.33150391781997
 20
12.333371165589
 30
0.0
 11
18.60720682739174
 21
15.60907407516076
 31
0.0
  0
LINE
  5
536
330
1F
100
AcDbEntity
  8
0
100
AcDbLine
 10
15.36620202069191
 20
12.44302258726671
 30
0.0
 11
18.49755222227296
 21
15.57437278884776
 31
0.0
  0
LINE
  5
537
330
1F
100
AcDbEntity
  8
0
100
AcDbLine
 10
15.40585918238226
 20
12.55763306776283
 30
0.0
 11
18.38295188901835
 21
15.53472577439892
 31
0.0
  0
LINE
  5
538
330
1F
100
AcDbEntity
  8
0
100
AcDbLine
 10
15.45191328236933
 20
12.67864048655568
 30
0.0
 11
18.26195761634209
 21
15.48868482052844
 31
0.0
  0
LINE
  5
539
330
1F
100
AcDbEntity
  8
0
100
AcDbLine
 10
15.50489977573813
 20
12.80658029873026
 30
0.0
 11
18.13395438143045
 21
15.43563490442257
 31
0.0
  0
LINE
  5
53A
330
1F
100
AcDbEntity
  8
0
100
AcDbLine
 10
15.56636496715565
 20
12.94299880895355
 30
0.0
 11
17.9975454835948
 21
15.3741793253927
 31
0.0
  0
LINE
  5
53B
330
1F
100
AcDbEntity
  8
0
100
AcDbLine
 10
15.63863466242586
 20
13.09022182302953
 30
0.0
 11
17.85070461061709
 21
15.30229177122077
 31
0.0
  0
LINE
  5
53C
330
1F
100
AcDbEntity
  8
0
100
AcDbLine
 10
15.72440465883758
 20
13.25094513824702
 30
0.0
 11
17.68832001174439
 21
15.21486049115383
 31
0.0
  0
LINE
  5
53D
330
1F
100
AcDbEntity
  8
0
100
AcDbLine
 10
15.83139765350676
 20
13.43289145172198
 30
0.0
 11
17.50378284247018
 21
15.1052766406854
 31
0.0
  0
LINE
  5
53E
330
1F
100
AcDbEntity
  8
0
100
AcDbLine
 10
15.98223451817681
 20
13.6586816351978
 30
0.0
 11
17.28433849763626
 21
14.96078561465725
 31
0.0
  0
LINE
  5
53F
330
1F
100
AcDbEntity
  8
0
100
AcDbLine
 10
16.21876949902268
 20
13.97016993484945
 30
0.0
 11
16.96299963664276
 21
14.71440007246953
 31
0.0
  0
ENDSEC
  0
SECTION
  2
OBJECTS
  0
DICTIONARY
  5
C
330
0
100
AcDbDictionary
281
     1
  3
ACAD_COLOR
350
6C
  3
ACAD_GROUP
350
D
  3
ACAD_LAYOUT
350
1A
  3
ACAD_MATERIAL
350
6B
  3
ACAD_MLINESTYLE
350
17
  3
ACAD_PLOTSETTINGS
350
19
  3
ACAD_PLOTSTYLENAME
350
E
  3
ACAD_TABLESTYLE
350
92
  3
AcDbVariableDictionary
350
59
  0
DICTIONARY
  5
6C
102
{ACAD_REACTORS
330
C
102
}
330
C
100
AcDbDictionary
281
     1
  0
DICTIONARY
  5
D
102
{ACAD_REACTORS
330
C
102
}
330
C
100
AcDbDictionary
281
     1
  0
DICTIONARY
  5
1A
102
{ACAD_REACTORS
330
C
102
}
330
C
100
AcDbDictionary
281
     1
  3
Layout1
350
74
  3
Layout2
350
9C
  3
Model
350
22
  0
DICTIONARY
  5
6B
102
{ACAD_REACTORS
330
C
102
}
330
C
100
AcDbDictionary
281
     1
  0
DICTIONARY
  5
17
102
{ACAD_REACTORS
330
C
102
}
330
C
100
AcDbDictionary
281
     1
  3
Standard
350
18
  0
DICTIONARY
  5
19
102
{ACAD_REACTORS
330
C
102
}
330
C
100
AcDbDictionary
281
     1
  0
ACDBDICTIONARYWDFLT
  5
E
102
{ACAD_REACTORS
330
C
102
}
330
C
100
AcDbDictionary
281
     1
  3
Normal
350
F
100
AcDbDictionaryWithDefault
340
F
  0
DICTIONARY
  5
92
102
{ACAD_REACTORS
330
C
102
}
330
C
100
AcDbDictionary
281
     1
  0
DICTIONARY
  5
59
102
{ACAD_REACTORS
330
C
102
}
330
C
100
AcDbDictionary
281
     1
  0
LAYOUT
  5
74
102
{ACAD_REACTORS
330
1A
102
}
330
1A
100
AcDbPlotSettings
  1

  2
\\ADSCCNDC1\hq601xrx1
  4

  6

 40
0.0
 41
0.0
 42
0.0
 43
0.0
 44
0.0
 45
0.0
 46
0.0
 47
0.0
 48
0.0
 49
0.0
140
0.0
141
0.0
142
1.0
143
1.0
 70
   688
 72
     0
 73
     0
 74
     5
  7

 75
    16
 76
     0
 77
     2
 78
   300
147
1.0
148
0.0
149
0.0
100
AcDbLayout
  1
Layout1
 70
     1
 71
     1
 10
0.0
 20
0.0
 11
12.0
 21
9.0
 12
0.0
 22
0.0
 32
0.0
 14
0.0
 24
0.0
 34
0.0
 15
0.0
 25
0.0
 35
0.0
146
0.0
 13
0.0
 23
0.0
 33
0.0
 16
1.0
 26
0.0
 36
0.0
 17
0.0
 27
1.0
 37
0.0
 76
     0
330
73
  0
LAYOUT
  5
9C
102
{ACAD_REACTORS
330
1A
102
}
330
1A
100
AcDbPlotSettings
  1

  2
None
  4

  6

 40
0.0
 41
0.0
 42
0.0
 43
0.0
 44
0.0
 45
0.0
 46
0.0
 47
0.0
 48
0.0
 49
0.0
140
0.0
141
0.0
142
1.0
143
1.0
 70
   688
 72
     0
 73
     0
 74
     5
  7

 75
    16
 76
     0
 77
     2
 78
   300
147
1.0
148
0.0
149
0.0
100
AcDbLayout
  1
Layout2
 70
     1
 71
     2
 10
0.0
 20
0.0
 11
12.0
 21
9.0
 12
0.0
 22
0.0
 32
0.0
 14
1.000000000000000E+20
 24
1.000000000000000E+20
 34
1.000000000000000E+20
 15
-1.000000000000000E+20
 25
-1.000000000000000E+20
 35
-1.000000000000000E+20
146
0.0
 13
0.0
 23
0.0
 33
0.0
 16
1.0
 26
0.0
 36
0.0
 17
0.0
 27
1.0
 37
0.0
 76
     0
330
9B
  0
LAYOUT
  5
22
102
{ACAD_REACTORS
330
1A
102
}
330
1A
100
AcDbPlotSettings
  1

  2
none_device
  4
Letter_(8.50_x_11.00_Inches)
  6

 40
6.349999904632568
 41
6.349999904632568
 42
6.350006103515625
 43
6.350006103515625
 44
215.8999938964844
 45
279.3999938964844
 46
0.0
 47
0.0
 48
0.0
 49
0.0
140
0.0
141
0.0
142
1.0
143
3.560208697428377
 70
 11952
 72
     0
 73
     1
 74
     0
  7

 75
     0
 76
     0
 77
     2
 78
   300
147
0.28088241027059
148
0.1311165230791651
149
0.096403374003771
100
AcDbLayout
  1
Model
 70
     1
 71
     0
 10
0.0
 20
0.0
 11
12.0
 21
9.0
 12
0.0
 22
0.0
 32
0.0
 14
15.11400520154416
 24
5.826216099657336
 34
0.0
 15
25.21065084395214
 25
15.8265742556826
 35
0.0
146
0.0
 13
0.0
 23
0.0
 33
0.0
 16
1.0
 26
0.0
 36
0.0
 17
0.0
 27
1.0
 37
0.0
 76
     0
330
1F
  0
MLINESTYLE
  5
18
102
{ACAD_REACTORS
330
17
102
}
330
17
100
AcDbMlineStyle
  2
Standard
 70
     0
  3

 62
   256
 51
90.0
 52
90.0
 71
     2
 49
0.5
 62
   256
  6
BYLAYER
 49
-0.5
 62
   256
  6
BYLAYER
  0
ACDBPLACEHOLDER
  5
F
102
{ACAD_REACTORS
330
E
102
}
330
E
  0
ENDSEC
  0
EOF
